  0
SECTION
  2
HEADER
  9
$ACADVER
  1
AC1018
  9
$ACADMAINTVER
 70
     0
  9
$DWGCODEPAGE
  3
ANSI_1252
  9
$INSBASE
 10
0.0
 20
0.0
 30
0.0
  9
$EXTMIN
 10
1.000000000000000E+20
 20
1.000000000000000E+20
 30
1.000000000000000E+20
  9
$EXTMAX
 10
-1.000000000000000E+20
 20
-1.000000000000000E+20
 30
-1.000000000000000E+20
  9
$LIMMIN
 10
0.0
 20
0.0
  9
$LIMMAX
 10
12.0
 20
9.0
  9
$ORTHOMODE
 70
     0
  9
$REGENMODE
 70
     1
  9
$FILLMODE
 70
     1
  9
$QTEXTMODE
 70
     0
  9
$MIRRTEXT
 70
     1
  9
$LTSCALE
 40
1.0
  9
$ATTMODE
 70
     1
  9
$TEXTSIZE
 40
0.2
  9
$TRACEWID
 40
0.05
  9
$TEXTSTYLE
  7
Standard
  9
$CLAYER
  8
0
  9
$CELTYPE
  6
ByLayer
  9
$CECOLOR
 62
   256
  9
$CELTSCALE
 40
1.0
  9
$DISPSILH
 70
     0
  9
$DIMSCALE
 40
1.0
  9
$DIMASZ
 40
0.18
  9
$DIMEXO
 40
0.0625
  9
$DIMDLI
 40
0.38
  9
$DIMRND
 40
0.0
  9
$DIMDLE
 40
0.0
  9
$DIMEXE
 40
0.18
  9
$DIMTP
 40
0.0
  9
$DIMTM
 40
0.0
  9
$DIMTXT
 40
0.18
  9
$DIMCEN
 40
0.09
  9
$DIMTSZ
 40
0.0
  9
$DIMTOL
 70
     0
  9
$DIMLIM
 70
     0
  9
$DIMTIH
 70
     1
  9
$DIMTOH
 70
     1
  9
$DIMSE1
 70
     0
  9
$DIMSE2
 70
     0
  9
$DIMTAD
 70
     0
  9
$DIMZIN
 70
     0
  9
$DIMBLK
  1

  9
$DIMASO
 70
     1
  9
$DIMSHO
 70
     1
  9
$DIMPOST
  1

  9
$DIMAPOST
  1

  9
$DIMALT
 70
     0
  9
$DIMALTD
 70
     2
  9
$DIMALTF
 40
25.4
  9
$DIMLFAC
 40
1.0
  9
$DIMTOFL
 70
     0
  9
$DIMTVP
 40
0.0
  9
$DIMTIX
 70
     0
  9
$DIMSOXD
 70
     0
  9
$DIMSAH
 70
     0
  9
$DIMBLK1
  1

  9
$DIMBLK2
  1

  9
$DIMSTYLE
  2
Standard
  9
$DIMCLRD
 70
     0
  9
$DIMCLRE
 70
     0
  9
$DIMCLRT
 70
     0
  9
$DIMTFAC
 40
1.0
  9
$DIMGAP
 40
0.09
  9
$DIMJUST
 70
     0
  9
$DIMSD1
 70
     0
  9
$DIMSD2
 70
     0
  9
$DIMTOLJ
 70
     1
  9
$DIMTZIN
 70
     0
  9
$DIMALTZ
 70
     0
  9
$DIMALTTZ
 70
     0
  9
$DIMUPT
 70
     0
  9
$DIMDEC
 70
     4
  9
$DIMTDEC
 70
     4
  9
$DIMALTU
 70
     2
  9
$DIMALTTD
 70
     2
  9
$DIMTXSTY
  7
Standard
  9
$DIMAUNIT
 70
     0
  9
$DIMADEC
 70
     0
  9
$DIMALTRND
 40
0.0
  9
$DIMAZIN
 70
     0
  9
$DIMDSEP
 70
    46
  9
$DIMATFIT
 70
     3
  9
$DIMFRAC
 70
     0
  9
$DIMLDRBLK
  1

  9
$DIMLUNIT
 70
     2
  9
$DIMLWD
 70
    -2
  9
$DIMLWE
 70
    -2
  9
$DIMTMOVE
 70
     0
  9
$LUNITS
 70
     2
  9
$LUPREC
 70
     4
  9
$SKETCHINC
 40
0.1
  9
$FILLETRAD
 40
0.5
  9
$AUNITS
 70
     0
  9
$AUPREC
 70
     0
  9
$MENU
  1
.
  9
$ELEVATION
 40
0.0
  9
$PELEVATION
 40
0.0
  9
$THICKNESS
 40
0.0
  9
$LIMCHECK
 70
     0
  9
$CHAMFERA
 40
0.5
  9
$CHAMFERB
 40
0.5
  9
$CHAMFERC
 40
1.0
  9
$CHAMFERD
 40
0.0
  9
$SKPOLY
 70
     0
  9
$TDCREATE
 40
2456833.505890046
  9
$TDUCREATE
 40
2456833.422556713
  9
$TDUPDATE
 40
2456833.505890058
  9
$TDUUPDATE
 40
2456833.422556724
  9
$TDINDWG
 40
0.0000000116
  9
$TDUSRTIMER
 40
0.0000000116
  9
$USRTIMER
 70
     1
  9
$ANGBASE
 50
0.0
  9
$ANGDIR
 70
     0
  9
$PDMODE
 70
     0
  9
$PDSIZE
 40
0.0
  9
$PLINEWID
 40
0.0
  9
$SPLFRAME
 70
     0
  9
$SPLINETYPE
 70
     6
  9
$SPLINESEGS
 70
     8
  9
$HANDSEED
  5
90
  9
$SURFTAB1
 70
     6
  9
$SURFTAB2
 70
     6
  9
$SURFTYPE
 70
     6
  9
$SURFU
 70
     6
  9
$SURFV
 70
     6
  9
$UCSBASE
  2

  9
$UCSNAME
  2

  9
$UCSORG
 10
0.0
 20
0.0
 30
0.0
  9
$UCSXDIR
 10
1.0
 20
0.0
 30
0.0
  9
$UCSYDIR
 10
0.0
 20
1.0
 30
0.0
  9
$UCSORTHOREF
  2

  9
$UCSORTHOVIEW
 70
     0
  9
$UCSORGTOP
 10
0.0
 20
0.0
 30
0.0
  9
$UCSORGBOTTOM
 10
0.0
 20
0.0
 30
0.0
  9
$UCSORGLEFT
 10
0.0
 20
0.0
 30
0.0
  9
$UCSORGRIGHT
 10
0.0
 20
0.0
 30
0.0
  9
$UCSORGFRONT
 10
0.0
 20
0.0
 30
0.0
  9
$UCSORGBACK
 10
0.0
 20
0.0
 30
0.0
  9
$PUCSBASE
  2

  9
$PUCSNAME
  2

  9
$PUCSORG
 10
0.0
 20
0.0
 30
0.0
  9
$PUCSXDIR
 10
1.0
 20
0.0
 30
0.0
  9
$PUCSYDIR
 10
0.0
 20
1.0
 30
0.0
  9
$PUCSORTHOREF
  2

  9
$PUCSORTHOVIEW
 70
     0
  9
$PUCSORGTOP
 10
0.0
 20
0.0
 30
0.0
  9
$PUCSORGBOTTOM
 10
0.0
 20
0.0
 30
0.0
  9
$PUCSORGLEFT
 10
0.0
 20
0.0
 30
0.0
  9
$PUCSORGRIGHT
 10
0.0
 20
0.0
 30
0.0
  9
$PUCSORGFRONT
 10
0.0
 20
0.0
 30
0.0
  9
$PUCSORGBACK
 10
0.0
 20
0.0
 30
0.0
  9
$USERI1
 70
     0
  9
$USERI2
 70
     0
  9
$USERI3
 70
     0
  9
$USERI4
 70
     0
  9
$USERI5
 70
     0
  9
$USERR1
 40
0.0
  9
$USERR2
 40
0.0
  9
$USERR3
 40
0.0
  9
$USERR4
 40
0.0
  9
$USERR5
 40
0.0
  9
$WORLDVIEW
 70
     1
  9
$SHADEDGE
 70
     3
  9
$SHADEDIF
 70
    70
  9
$TILEMODE
 70
     1
  9
$MAXACTVP
 70
    64
  9
$PINSBASE
 10
0.0
 20
0.0
 30
0.0
  9
$PLIMCHECK
 70
     0
  9
$PEXTMIN
 10
1.000000000000000E+20
 20
1.000000000000000E+20
 30
1.000000000000000E+20
  9
$PEXTMAX
 10
-1.000000000000000E+20
 20
-1.000000000000000E+20
 30
-1.000000000000000E+20
  9
$PLIMMIN
 10
0.0
 20
0.0
  9
$PLIMMAX
 10
12.0
 20
9.0
  9
$UNITMODE
 70
     0
  9
$VISRETAIN
 70
     1
  9
$PLINEGEN
 70
     0
  9
$PSLTSCALE
 70
     1
  9
$TREEDEPTH
 70
  3020
  9
$CMLSTYLE
  2
Standard
  9
$CMLJUST
 70
     0
  9
$CMLSCALE
 40
1.0
  9
$PROXYGRAPHICS
 70
     1
  9
$MEASUREMENT
 70
     0
  9
$CELWEIGHT
370
    -1
  9
$ENDCAPS
280
     0
  9
$JOINSTYLE
280
     0
  9
$LWDISPLAY
290
     0
  9
$INSUNITS
 70
    13
  9
$HYPERLINKBASE
  1

  9
$STYLESHEET
  1

  9
$XEDIT
290
     1
  9
$CEPSNTYPE
380
     0
  9
$PSTYLEMODE
290
     1
  9
$FINGERPRINTGUID
  2
{2490EBAE-4A63-496F-A5E3-640999509C58}
  9
$VERSIONGUID
  2
{FAEB1C32-E019-11D5-929B-00C0DF256EC4}
  9
$EXTNAMES
290
     1
  9
$PSVPSCALE
 40
0.0
  9
$OLESTARTUP
290
     0
  9
$SORTENTS
280
   127
  9
$INDEXCTL
280
     0
  9
$HIDETEXT
280
     1
  9
$XCLIPFRAME
290
     0
  9
$HALOGAP
280
     0
  9
$OBSCOLOR
 70
   257
  9
$OBSLTYPE
280
     0
  9
$INTERSECTIONDISPLAY
280
     0
  9
$INTERSECTIONCOLOR
 70
   257
  9
$DIMASSOC
280
     2
  9
$PROJECTNAME
  1

  0
ENDSEC
  0
SECTION
  2
CLASSES
  0
CLASS
  1
ACDBDICTIONARYWDFLT
  2
AcDbDictionaryWithDefault
  3
ObjectDBX Classes
 90
        0
 91
        3
280
     0
281
     0
  0
CLASS
  1
VISUALSTYLE
  2
AcDbVisualStyle
  3
ObjectDBX Classes
 90
     4095
 91
        3
280
     0
281
     0
  0
CLASS
  1
SCALE
  2
AcDbScale
  3
ObjectDBX Classes
 90
     1153
 91
        3
280
     0
281
     0
  0
ENDSEC
  0
SECTION
  2
TABLES
  0
TABLE
  2
VPORT
  5
8
330
0
100
AcDbSymbolTable
 70
     1
  0
VPORT
  5
29
330
8
100
AcDbSymbolTableRecord
100
AcDbViewportTableRecord
  2
*Active
 70
     0
 10
0.0
 20
0.0
 11
1.0
 21
1.0
 12
10.42990654205607
 22
4.5
 13
0.0
 23
0.0
 14
0.5
 24
0.5
 15
0.5
 25
0.5
 16
0.0
 26
0.0
 36
1.0
 17
0.0
 27
0.0
 37
0.0
 40
9.0
 41
1.972972972850329
 42
50.0
 43
0.0
 44
0.0
 50
0.0
 51
0.0
 71
     0
 72
   100
 73
     1
 74
     3
 75
     0
 76
     0
 77
     0
 78
     0
281
     0
 65
     1
110
0.0
120
0.0
130
0.0
111
1.0
121
0.0
131
0.0
112
0.0
122
1.0
132
0.0
 79
     0
146
0.0
  0
ENDTAB
  0
TABLE
  2
LTYPE
  5
5
330
0
100
AcDbSymbolTable
 70
     1
  0
LTYPE
  5
14
330
5
100
AcDbSymbolTableRecord
100
AcDbLinetypeTableRecord
  2
ByBlock
 70
     0
  3

 72
    65
 73
     0
 40
0.0
  0
LTYPE
  5
15
330
5
100
AcDbSymbolTableRecord
100
AcDbLinetypeTableRecord
  2
ByLayer
 70
     0
  3

 72
    65
 73
     0
 40
0.0
  0
LTYPE
  5
16
330
5
100
AcDbSymbolTableRecord
100
AcDbLinetypeTableRecord
  2
Continuous
 70
     0
  3
Solid line
 72
    65
 73
     0
 40
0.0
  0
ENDTAB
  0
TABLE
  2
LAYER
  5
2
330
0
100
AcDbSymbolTable
 70
     2
  0
LAYER
  5
10
330
2
100
AcDbSymbolTableRecord
100
AcDbLayerTableRecord
  2
0
 70
     0
 62
     7
  6
Continuous
370
    -3
390
F
  0
LAYER
  5
5E
330
2
100
AcDbSymbolTableRecord
100
AcDbLayerTableRecord
  2
text2
 70
     0
 62
    16
420
  8388608
  6
Continuous
370
    -3
390
F
  0
ENDTAB
  0
TABLE
  2
STYLE
  5
3
330
0
100
AcDbSymbolTable
 70
     1
  0
STYLE
  5
11
330
3
100
AcDbSymbolTableRecord
100
AcDbTextStyleTableRecord
  2
Standard
 70
     0
 40
0.0
 41
1.0
 50
0.0
 71
     0
 42
0.2
  3
txt
  4

  0
ENDTAB
  0
TABLE
  2
VIEW
  5
6
330
0
100
AcDbSymbolTable
 70
     0
  0
ENDTAB
  0
TABLE
  2
UCS
  5
7
330
0
100
AcDbSymbolTable
 70
     0
  0
ENDTAB
  0
TABLE
  2
APPID
  5
9
330
0
100
AcDbSymbolTable
 70
     1
  0
APPID
  5
12
330
9
100
AcDbSymbolTableRecord
100
AcDbRegAppTableRecord
  2
ACAD
 70
     0
  0
ENDTAB
  0
TABLE
  2
DIMSTYLE
  5
A
330
0
100
AcDbSymbolTable
 70
     1
100
AcDbDimStyleTable
  0
DIMSTYLE
105
27
330
A
100
AcDbSymbolTableRecord
100
AcDbDimStyleTableRecord
  2
Standard
 70
     0
340
11
  0
ENDTAB
  0
TABLE
  2
BLOCK_RECORD
  5
1
330
0
100
AcDbSymbolTable
 70
     1
  0
BLOCK_RECORD
  5
1F
330
1
100
AcDbSymbolTableRecord
100
AcDbBlockTableRecord
  2
*Model_Space
340
22
  0
BLOCK_RECORD
  5
1B
330
1
100
AcDbSymbolTableRecord
100
AcDbBlockTableRecord
  2
*Paper_Space
340
1E
  0
BLOCK_RECORD
  5
23
330
1
100
AcDbSymbolTableRecord
100
AcDbBlockTableRecord
  2
*Paper_Space0
340
26
  0
ENDTAB
  0
ENDSEC
  0
SECTION
  2
BLOCKS
  0
BLOCK
  5
20
330
1F
100
AcDbEntity
  8
0
100
AcDbBlockBegin
  2
*Model_Space
 70
     0
 10
0.0
 20
0.0
 30
0.0
  3
*Model_Space
  1

  0
ENDBLK
  5
21
330
1F
100
AcDbEntity
  8
0
100
AcDbBlockEnd
  0
BLOCK
  5
1C
330
1B
100
AcDbEntity
 67
     1
  8
0
100
AcDbBlockBegin
  2
*Paper_Space
 70
     0
 10
0.0
 20
0.0
 30
0.0
  3
*Paper_Space
  1

  0
ENDBLK
  5
1D
330
1B
100
AcDbEntity
 67
     1
  8
0
100
AcDbBlockEnd
  0
BLOCK
  5
24
330
23
100
AcDbEntity
  8
0
100
AcDbBlockBegin
  2
*Paper_Space0
 70
     0
 10
0.0
 20
0.0
 30
0.0
  3
*Paper_Space0
  1

  0
ENDBLK
  5
25
330
23
100
AcDbEntity
  8
0
100
AcDbBlockEnd
  0
ENDSEC
  0
SECTION
  2
ENTITIES
  0
LWPOLYLINE
  5
5D
330
1F
100
AcDbEntity
  8
text2
100
AcDbPolyline
 90
        4
 70
     1
 43
0.0
 10
0.0
 20
0.0
 10
0.0
 20
3000.0
 10
2000.0
 20
3000.0
 10
2000.0
 20
0.0
  0
LWPOLYLINE
  5
5F
330
1F
100
AcDbEntity
  8
text2
100
AcDbPolyline
 90
        4
 70
     1
 43
0.0
 10
1757.6
 20
2839.0
 10
1757.6
 20
2934.0
 10
1852.6
 20
2934.0
 10
1852.6
 20
2839.0
  0
LWPOLYLINE
  5
60
330
1F
100
AcDbEntity
  8
text2
100
AcDbPolyline
 90
        4
 70
     1
 43
0.0
 10
1607.6
 20
2839.0
 10
1607.6
 20
2934.0
 10
1702.6
 20
2934.0
 10
1702.6
 20
2839.0
  0
LWPOLYLINE
  5
61
330
1F
100
AcDbEntity
  8
text2
100
AcDbPolyline
 90
        4
 70
     1
 43
0.0
 10
1457.6
 20
2839.0
 10
1457.6
 20
2934.0
 10
1552.6
 20
2934.0
 10
1552.6
 20
2839.0
  0
LWPOLYLINE
  5
62
330
1F
100
AcDbEntity
  8
text2
100
AcDbPolyline
 90
        4
 70
     1
 43
0.0
 10
1157.6
 20
2839.0
 10
1157.6
 20
2934.0
 10
1402.6
 20
2934.0
 10
1402.6
 20
2839.0
  0
LWPOLYLINE
  5
63
330
1F
100
AcDbEntity
  8
text2
100
AcDbPolyline
 90
        4
 70
     1
 43
0.0
 10
1007.6
 20
2839.0
 10
1007.6
 20
2934.0
 10
1102.6
 20
2934.0
 10
1102.6
 20
2839.0
  0
LWPOLYLINE
  5
64
330
1F
100
AcDbEntity
  8
text2
100
AcDbPolyline
 90
        4
 70
     1
 43
0.0
 10
857.6
 20
2839.0
 10
857.6
 20
2934.0
 10
952.6
 20
2934.0
 10
952.6
 20
2839.0
  0
LWPOLYLINE
  5
65
330
1F
100
AcDbEntity
  8
text2
100
AcDbPolyline
 90
        4
 70
     1
 43
0.0
 10
707.6
 20
2839.0
 10
707.6
 20
2934.0
 10
802.6
 20
2934.0
 10
802.6
 20
2839.0
  0
LWPOLYLINE
  5
66
330
1F
100
AcDbEntity
  8
text2
100
AcDbPolyline
 90
        4
 70
     1
 43
0.0
 10
407.6
 20
2839.0
 10
407.6
 20
2934.0
 10
652.6
 20
2934.0
 10
652.6
 20
2839.0
  0
LWPOLYLINE
  5
67
330
1F
100
AcDbEntity
  8
text2
100
AcDbPolyline
 90
        4
 70
     1
 43
0.0
 10
257.6
 20
2739.0
 10
257.6
 20
2934.0
 10
352.6
 20
2934.0
 10
352.6
 20
2739.0
  0
LWPOLYLINE
  5
68
330
1F
100
AcDbEntity
  8
text2
100
AcDbPolyline
 90
        4
 70
     1
 43
0.0
 10
257.6
 20
66.0
 10
257.6
 20
261.0
 10
352.6
 20
261.0
 10
352.6
 20
66.0
  0
LWPOLYLINE
  5
69
330
1F
100
AcDbEntity
  8
text2
100
AcDbPolyline
 90
        4
 70
     1
 43
0.0
 10
407.6
 20
66.0
 10
407.6
 20
161.0
 10
652.6
 20
161.0
 10
652.6
 20
66.0
  0
LWPOLYLINE
  5
6A
330
1F
100
AcDbEntity
  8
text2
100
AcDbPolyline
 90
        4
 70
     1
 43
0.0
 10
707.6
 20
66.0
 10
707.6
 20
161.0
 10
802.6
 20
161.0
 10
802.6
 20
66.0
  0
LWPOLYLINE
  5
6B
330
1F
100
AcDbEntity
  8
text2
100
AcDbPolyline
 90
        4
 70
     1
 43
0.0
 10
857.6
 20
66.0
 10
857.6
 20
161.0
 10
952.6
 20
161.0
 10
952.6
 20
66.0
  0
LWPOLYLINE
  5
6C
330
1F
100
AcDbEntity
  8
text2
100
AcDbPolyline
 90
        4
 70
     1
 43
0.0
 10
1007.6
 20
66.0
 10
1007.6
 20
161.0
 10
1102.6
 20
161.0
 10
1102.6
 20
66.0
  0
LWPOLYLINE
  5
6D
330
1F
100
AcDbEntity
  8
text2
100
AcDbPolyline
 90
        4
 70
     1
 43
0.0
 10
1157.6
 20
66.0
 10
1157.6
 20
161.0
 10
1402.6
 20
161.0
 10
1402.6
 20
66.0
  0
LWPOLYLINE
  5
6E
330
1F
100
AcDbEntity
  8
text2
100
AcDbPolyline
 90
        4
 70
     1
 43
0.0
 10
1457.6
 20
66.0
 10
1457.6
 20
161.0
 10
1552.6
 20
161.0
 10
1552.6
 20
66.0
  0
LWPOLYLINE
  5
6F
330
1F
100
AcDbEntity
  8
text2
100
AcDbPolyline
 90
        4
 70
     1
 43
0.0
 10
1607.6
 20
66.0
 10
1607.6
 20
161.0
 10
1702.6
 20
161.0
 10
1702.6
 20
66.0
  0
LWPOLYLINE
  5
70
330
1F
100
AcDbEntity
  8
text2
100
AcDbPolyline
 90
        4
 70
     1
 43
0.0
 10
1757.6
 20
66.0
 10
1757.6
 20
161.0
 10
1852.6
 20
161.0
 10
1852.6
 20
66.0
  0
LWPOLYLINE
  5
71
330
1F
100
AcDbEntity
  8
text2
100
AcDbPolyline
 90
       26
 70
     1
 43
0.0
 10
145.9
 20
1591.6
 10
146.7
 20
1586.5
 10
145.9
 20
1581.4
 10
143.5
 20
1576.7
 10
139.9
 20
1573.1
 10
135.2
 20
1570.7
 10
130.8
 20
1570.0
 10
66.0
 20
1570.0
 10
66.0
 20
1647.4
 10
66.7
 20
1651.8
 10
69.10000000000001
 20
1656.5
 10
72.7
 20
1660.1
 10
77.4
 20
1662.5
 10
82.5
 20
1663.3
 10
87.60000000000001
 20
1662.5
 10
92.3
 20
1660.1
 10
95.9
 20
1656.5
 10
98.3
 20
1651.8
 10
99.0
 20
1647.4
 10
99.0
 20
1638.2
 10
121.5
 20
1603.0
 10
130.8
 20
1603.0
 10
135.2
 20
1602.3
 10
139.9
 20
1599.9
 10
143.5
 20
1596.3
 10
145.9
 20
1591.6
  0
LWPOLYLINE
  5
72
330
1F
100
AcDbEntity
  8
text2
100
AcDbPolyline
 90
        9
 70
     1
 43
0.0
 10
66.0
 20
1471.0
 10
66.0
 20
1529.0
 10
134.8
 20
1529.0
 10
164.8
 20
1516.5
 10
174.0
 20
1516.5
 10
174.0
 20
1483.5
 10
164.8
 20
1483.5
 10
134.8
 20
1471.0
 10
66.0
 20
1471.0
  0
LWPOLYLINE
  5
73
330
1F
100
AcDbEntity
  8
text2
100
AcDbPolyline
 90
       26
 70
     1
 43
0.0
 10
66.0
 20
1352.6
 10
66.0
 20
1430.0
 10
130.8
 20
1430.0
 10
135.2
 20
1429.3
 10
139.9
 20
1426.9
 10
143.5
 20
1423.3
 10
145.9
 20
1418.6
 10
146.7
 20
1413.5
 10
145.9
 20
1408.4
 10
143.5
 20
1403.7
 10
139.9
 20
1400.1
 10
135.2
 20
1397.7
 10
130.8
 20
1397.0
 10
121.5
 20
1397.0
 10
99.0
 20
1361.8
 10
99.0
 20
1352.6
 10
98.3
 20
1348.2
 10
95.9
 20
1343.5
 10
92.3
 20
1339.9
 10
87.60000000000001
 20
1337.5
 10
82.5
 20
1336.7
 10
77.4
 20
1337.5
 10
72.7
 20
1339.9
 10
69.10000000000001
 20
1343.5
 10
66.7
 20
1348.2
 10
66.0
 20
1352.6
  0
LWPOLYLINE
  5
74
330
1F
100
AcDbEntity
  8
text2
100
AcDbPolyline
 90
       26
 70
     1
 43
0.0
 10
1934.0
 20
1647.4
 10
1934.0
 20
1570.0
 10
1869.2
 20
1570.0
 10
1864.8
 20
1570.7
 10
1860.1
 20
1573.1
 10
1856.5
 20
1576.7
 10
1854.1
 20
1581.4
 10
1853.3
 20
1586.5
 10
1854.1
 20
1591.6
 10
1856.5
 20
1596.3
 10
1860.1
 20
1599.9
 10
1864.8
 20
1602.3
 10
1869.2
 20
1603.0
 10
1878.5
 20
1603.0
 10
1901.0
 20
1638.2
 10
1901.0
 20
1647.4
 10
1901.7
 20
1651.8
 10
1904.1
 20
1656.5
 10
1907.7
 20
1660.1
 10
1912.4
 20
1662.5
 10
1917.5
 20
1663.3
 10
1922.6
 20
1662.5
 10
1927.3
 20
1660.1
 10
1930.9
 20
1656.5
 10
1933.3
 20
1651.8
 10
1934.0
 20
1647.4
  0
LWPOLYLINE
  5
75
330
1F
100
AcDbEntity
  8
text2
100
AcDbPolyline
 90
        9
 70
     1
 43
0.0
 10
1934.0
 20
1529.0
 10
1934.0
 20
1471.0
 10
1865.2
 20
1471.0
 10
1835.2
 20
1483.5
 10
1826.0
 20
1483.5
 10
1826.0
 20
1516.5
 10
1835.2
 20
1516.5
 10
1865.2
 20
1529.0
 10
1934.0
 20
1529.0
  0
LWPOLYLINE
  5
76
330
1F
100
AcDbEntity
  8
text2
100
AcDbPolyline
 90
       26
 70
     1
 43
0.0
 10
1854.1
 20
1408.4
 10
1853.3
 20
1413.5
 10
1854.1
 20
1418.6
 10
1856.5
 20
1423.3
 10
1860.1
 20
1426.9
 10
1864.8
 20
1429.3
 10
1869.2
 20
1430.0
 10
1934.0
 20
1430.0
 10
1934.0
 20
1352.6
 10
1933.3
 20
1348.2
 10
1930.9
 20
1343.5
 10
1927.3
 20
1339.9
 10
1922.6
 20
1337.5
 10
1917.5
 20
1336.7
 10
1912.4
 20
1337.5
 10
1907.7
 20
1339.9
 10
1904.1
 20
1343.5
 10
1901.7
 20
1348.2
 10
1901.0
 20
1352.6
 10
1901.0
 20
1361.8
 10
1878.5
 20
1397.0
 10
1869.2
 20
1397.0
 10
1864.8
 20
1397.7
 10
1860.1
 20
1400.1
 10
1856.5
 20
1403.7
 10
1854.1
 20
1408.4
  0
LWPOLYLINE
  5
77
330
1F
100
AcDbEntity
  8
text2
100
AcDbPolyline
 90
        9
 70
     1
 43
0.0
 10
65.0
 20
2044.0
 10
65.0
 20
2094.0
 10
93.57000000000001
 20
2094.0
 10
100.71
 20
2086.855
 10
100.71
 20
2072.57
 10
93.57000000000001
 20
2065.43
 10
72.14
 20
2065.43
 10
72.14
 20
2044.0
 10
65.0
 20
2044.0
  0
LWPOLYLINE
  5
78
330
1F
100
AcDbEntity
  8
text2
100
AcDbPolyline
 90
        9
 70
     1
 43
0.0
 10
74.815
 20
2885.0
 10
74.815
 20
2935.0
 10
103.385
 20
2935.0
 10
110.525
 20
2927.855
 10
110.525
 20
2913.57
 10
103.385
 20
2906.43
 10
81.955
 20
2906.43
 10
81.955
 20
2885.0
 10
74.815
 20
2885.0
  0
LWPOLYLINE
  5
79
330
1F
100
AcDbEntity
  8
text2
100
AcDbPolyline
 90
       11
 70
     1
 43
0.0
 10
81.95
 20
510.3
 10
81.95
 20
527.444
 10
87.666
 20
533.1560000000001
 10
121.95
 20
533.1560000000001
 10
121.95
 20
527.444
 10
104.806
 20
527.444
 10
104.806
 20
510.3
 10
121.95
 20
510.3
 10
121.95
 20
504.588
 10
87.666
 20
504.588
 10
81.95
 20
510.3
  0
LWPOLYLINE
  5
7A
330
1F
100
AcDbEntity
  8
text2
100
AcDbPolyline
 90
       11
 70
     1
 43
0.0
 10
81.95
 20
584.588
 10
81.95
 20
613.1560000000001
 10
90.522
 20
613.1560000000001
 10
116.234
 20
590.3000000000001
 10
116.234
 20
613.1560000000001
 10
121.95
 20
613.1560000000001
 10
121.95
 20
584.588
 10
113.378
 20
584.588
 10
87.666
 20
607.444
 10
87.666
 20
584.588
 10
81.95
 20
584.588
  0
LWPOLYLINE
  5
7B
330
1F
100
AcDbEntity
  8
text2
100
AcDbPolyline
 90
        9
 70
     1
 43
0.0
 10
81.95
 20
633.1560000000001
 10
81.95
 20
644.588
 10
87.666
 20
650.3000000000001
 10
116.234
 20
650.3000000000001
 10
121.95
 20
644.588
 10
121.95
 20
633.1560000000001
 10
116.234
 20
627.444
 10
87.666
 20
627.444
 10
81.95
 20
633.1560000000001
  0
LWPOLYLINE
  5
7C
330
1F
100
AcDbEntity
  8
text2
100
AcDbPolyline
 90
        9
 70
     1
 43
0.0
 10
81.95
 20
673.1560000000001
 10
81.95
 20
684.588
 10
87.666
 20
690.3000000000001
 10
116.234
 20
690.3000000000001
 10
121.95
 20
684.588
 10
121.95
 20
673.1560000000001
 10
116.234
 20
667.444
 10
87.666
 20
667.444
 10
81.95
 20
673.1560000000001
  0
LWPOLYLINE
  5
7D
330
1F
100
AcDbEntity
  8
text2
100
AcDbPolyline
 90
        9
 70
     1
 43
0.0
 10
81.96000000000001
 20
65.0
 10
81.96000000000001
 20
115.0
 10
110.53
 20
115.0
 10
117.67
 20
107.855
 10
117.67
 20
93.57000000000001
 10
110.53
 20
86.43
 10
89.10000000000001
 20
86.43
 10
89.10000000000001
 20
65.0
 10
81.96000000000001
 20
65.0
  0
LWPOLYLINE
  5
7E
330
1F
100
AcDbEntity
  8
text2
100
AcDbPolyline
 90
       11
 70
     1
 43
0.0
 10
84.642
 20
1708.487
 10
88.929
 20
1708.487
 10
88.929
 20
1704.2
 10
76.071
 20
1704.2
 10
76.071
 20
1708.487
 10
80.358
 20
1708.487
 10
80.358
 20
1729.913
 10
76.071
 20
1729.913
 10
80.358
 20
1734.2
 10
84.642
 20
1734.2
 10
84.642
 20
1708.487
  0
LWPOLYLINE
  5
7F
330
1F
100
AcDbEntity
  8
text2
100
AcDbPolyline
 90
        9
 70
     1
 43
0.0
 10
104.806
 20
550.3000000000001
 10
121.95
 20
550.3000000000001
 10
121.95
 20
544.588
 10
81.95
 20
544.588
 10
81.95
 20
567.444
 10
87.666
 20
573.1560000000001
 10
99.09400000000001
 20
573.1560000000001
 10
104.806
 20
567.444
 10
104.806
 20
550.3000000000001
  0
LWPOLYLINE
  5
80
330
1F
100
AcDbEntity
  8
text2
100
AcDbPolyline
 90
       26
 70
     1
 43
0.0
 10
116.234
 20
733.1560000000001
 10
121.95
 20
727.444
 10
121.95
 20
710.3000000000001
 10
116.234
 20
704.588
 10
113.378
 20
710.3000000000001
 10
116.234
 20
713.1560000000001
 10
116.234
 20
724.588
 10
113.378
 20
727.444
 10
110.522
 20
727.444
 10
104.806
 20
721.7280000000001
 10
104.806
 20
716.016
 10
99.09400000000001
 20
716.016
 10
99.09400000000001
 20
721.7280000000001
 10
93.378
 20
727.444
 10
90.522
 20
727.444
 10
87.666
 20
724.588
 10
87.666
 20
713.1560000000001
 10
90.522
 20
710.3000000000001
 10
87.666
 20
704.588
 10
81.95
 20
710.3000000000001
 10
81.95
 20
727.444
 10
87.666
 20
733.1560000000001
 10
96.23400000000001
 20
733.1560000000001
 10
101.95
 20
727.444
 10
107.666
 20
733.1560000000001
 10
116.234
 20
733.1560000000001
  0
LWPOLYLINE
  5
81
330
1F
100
AcDbEntity
  8
text2
100
AcDbPolyline
 90
       17
 70
     1
 43
0.0
 10
116.234
 20
773.1560000000001
 10
121.95
 20
767.444
 10
121.95
 20
750.3000000000001
 10
116.234
 20
744.588
 10
113.378
 20
750.3000000000001
 10
116.234
 20
753.1560000000001
 10
116.234
 20
764.588
 10
113.378
 20
767.444
 10
101.95
 20
767.444
 10
104.806
 20
764.588
 10
104.806
 20
750.3000000000001
 10
99.09400000000001
 20
744.588
 10
87.666
 20
744.588
 10
81.95
 20
750.3000000000001
 10
81.95
 20
767.444
 10
87.666
 20
773.1560000000001
 10
116.234
 20
773.1560000000001
  0
LWPOLYLINE
  5
82
330
1F
100
AcDbEntity
  8
text2
100
AcDbPolyline
 90
       17
 70
     1
 43
0.0
 10
127.666
 20
467.444
 10
127.666
 20
481.728
 10
124.807
 20
484.588
 10
119.093
 20
484.588
 10
121.95
 20
481.728
 10
121.95
 20
473.156
 10
116.234
 20
467.444
 10
104.806
 20
467.444
 10
99.09400000000001
 20
473.156
 10
99.09400000000001
 20
481.728
 10
101.95
 20
484.588
 10
99.09400000000001
 20
484.588
 10
99.09400000000001
 20
490.3
 10
127.666
 20
490.3
 10
133.378
 20
484.588
 10
133.378
 20
467.444
 10
127.666
 20
467.444
  0
LWPOLYLINE
  5
83
330
1F
100
AcDbEntity
  8
text2
100
AcDbPolyline
 90
       12
 70
     1
 43
0.0
 10
143.57
 20
2069.0
 10
150.71
 20
2069.0
 10
150.71
 20
2061.855
 10
143.57
 20
2061.855
 10
143.57
 20
2044.0
 10
136.425
 20
2044.0
 10
136.425
 20
2061.855
 10
115.0
 20
2061.855
 10
115.0
 20
2069.0
 10
136.425
 20
2094.0
 10
143.57
 20
2094.0
 10
143.57
 20
2069.0
  0
LWPOLYLINE
  5
84
330
1F
100
AcDbEntity
  8
text2
100
AcDbPolyline
 90
       11
 70
     1
 43
0.0
 10
146.24
 20
2892.145
 10
153.385
 20
2892.145
 10
153.385
 20
2885.0
 10
131.955
 20
2885.0
 10
131.955
 20
2892.145
 10
139.1
 20
2892.145
 10
139.1
 20
2927.855
 10
131.955
 20
2927.855
 10
139.1
 20
2935.0
 10
146.24
 20
2935.0
 10
146.24
 20
2892.145
  0
LWPOLYLINE
  5
85
330
1F
100
AcDbEntity
  8
text2
100
AcDbPolyline
 90
       26
 70
     1
 43
0.0
 10
160.53
 20
115.0
 10
167.67
 20
107.855
 10
167.67
 20
97.145
 10
160.53
 20
90.0
 10
167.67
 20
82.855
 10
167.67
 20
72.145
 10
160.53
 20
65.0
 10
139.1
 20
65.0
 10
131.96
 20
72.145
 10
139.1
 20
75.715
 10
142.67
 20
72.145
 10
156.96
 20
72.145
 10
160.53
 20
75.715
 10
160.53
 20
79.285
 10
153.385
 20
86.43
 10
146.245
 20
86.43
 10
146.245
 20
93.57000000000001
 10
153.385
 20
93.57000000000001
 10
160.53
 20
100.715
 10
160.53
 20
104.285
 10
156.96
 20
107.855
 10
142.67
 20
107.855
 10
139.1
 20
104.285
 10
131.96
 20
107.855
 10
139.1
 20
115.0
 10
160.53
 20
115.0
  0
LWPOLYLINE
  5
86
330
1F
100
AcDbEntity
  8
text2
100
AcDbPolyline
 90
      278
 70
     1
 43
0.0
 10
199.05
 20
344.4
 10
200.65
 20
345.6
 10
202.25
 20
347.2
 10
203.85
 20
348.4
 10
205.05
 20
349.6
 10
205.85
 20
351.2
 10
206.65
 20
352.4
 10
208.25
 20
355.6
 10
208.65
 20
356.8
 10
208.65
 20
358.4
 10
209.05
 20
360.4
 10
209.05
 20
362.0
 10
208.65
 20
364.8
 10
207.45
 20
368.4
 10
205.45
 20
371.6
 10
202.65
 20
374.8
 10
199.45
 20
377.6
 10
195.45
 20
380.0
 10
194.65
 20
380.8
 10
192.65
 20
378.4
 10
190.25
 20
374.8
 10
187.85
 20
370.8
 10
185.85
 20
366.8
 10
184.25
 20
362.8
 10
183.05
 20
358.8
 10
182.25
 20
354.8
 10
181.85
 20
350.8
 10
182.25
 20
347.2
 10
182.65
 20
344.0
 10
183.85
 20
340.8
 10
184.25
 20
340.4
 10
185.05
 20
340.4
 10
190.65
 20
341.2
 10
193.45
 20
342.0
 10
195.85
 20
342.8
 10
193.05
 20
341.6
 10
189.85
 20
340.8
 10
186.65
 20
339.6
 10
184.65
 20
339.2
 10
185.05
 20
338.4
 10
187.45
 20
336.0
 10
189.05
 20
334.8
 10
190.65
 20
334.0
 10
194.65
 20
332.4
 10
198.65
 20
331.6
 10
196.25
 20
331.6
 10
193.45
 20
332.0
 10
188.65
 20
333.6
 10
186.25
 20
334.8
 10
183.85
 20
335.6
 10
181.85
 20
337.2
 10
180.25
 20
338.4
 10
179.45
 20
338.0
 10
167.45
 20
336.8
 10
159.45
 20
336.8
 10
155.45
 20
337.2
 10
151.05
 20
337.6
 10
144.65
 20
338.8
 10
137.45
 20
340.8
 10
130.65
 20
343.2
 10
124.25
 20
345.6
 10
118.65
 20
348.8
 10
113.45
 20
352.4
 10
108.65
 20
356.0
 10
105.05
 20
360.0
 10
101.85
 20
364.4
 10
99.85000000000001
 20
368.8
 10
98.25
 20
373.2
 10
97.85000000000001
 20
377.6
 10
98.25
 20
381.6
 10
99.05
 20
384.0
 10
99.85000000000001
 20
386.0
 10
101.05
 20
388.4
 10
102.65
 20
390.4
 10
106.65
 20
394.4
 10
109.05
 20
396.0
 10
111.45
 20
398.0
 10
114.25
 20
399.6
 10
119.85
 20
402.0
 10
123.05
 20
403.2
 10
118.25
 20
400.8
 10
116.65
 20
399.6
 10
114.65
 20
398.4
 10
113.05
 20
397.2
 10
109.45
 20
392.4
 10
108.65
 20
390.8
 10
107.85
 20
388.8
 10
107.05
 20
384.8
 10
106.65
 20
381.2
 10
107.05
 20
376.8
 10
108.25
 20
372.0
 10
110.65
 20
368.0
 10
113.85
 20
363.6
 10
117.45
 20
359.6
 10
122.25
 20
356.0
 10
127.45
 20
352.4
 10
133.05
 20
349.2
 10
139.45
 20
346.4
 10
146.25
 20
344.0
 10
153.45
 20
342.4
 10
159.85
 20
341.2
 10
163.05
 20
340.8
 10
166.65
 20
340.4
 10
169.85
 20
340.0
 10
178.25
 20
340.0
 10
177.45
 20
340.4
 10
173.45
 20
344.4
 10
171.85
 20
346.8
 10
169.05
 20
350.4
 10
166.65
 20
355.2
 10
166.25
 20
356.4
 10
165.85
 20
356.8
 10
165.05
 20
358.0
 10
163.85
 20
359.2
 10
163.05
 20
360.4
 10
160.65
 20
362.0
 10
159.45
 20
363.2
 10
158.25
 20
363.6
 10
155.85
 20
365.2
 10
154.65
 20
365.6
 10
153.05
 20
366.0
 10
151.45
 20
366.0
 10
149.85
 20
366.4
 10
148.65
 20
366.4
 10
147.05
 20
366.8
 10
145.45
 20
366.4
 10
143.85
 20
366.4
 10
142.25
 20
366.0
 10
141.05
 20
365.6
 10
137.85
 20
364.8
 10
136.65
 20
364.0
 10
135.05
 20
363.2
 10
133.45
 20
362.0
 10
132.25
 20
361.2
 10
135.05
 20
364.0
 10
137.05
 20
365.2
 10
138.65
 20
366.0
 10
140.65
 20
367.2
 10
142.25
 20
368.0
 10
144.25
 20
368.8
 10
145.85
 20
369.2
 10
147.85
 20
370.0
 10
149.45
 20
370.0
 10
151.45
 20
370.4
 10
153.45
 20
370.4
 10
155.05
 20
370.0
 10
157.05
 20
370.0
 10
158.65
 20
369.2
 10
160.65
 20
368.8
 10
163.05
 20
367.6
 10
162.65
 20
370.8
 10
162.65
 20
376.4
 10
163.05
 20
381.6
 10
164.25
 20
386.8
 10
164.65
 20
387.6
 10
162.65
 20
387.6
 10
157.05
 20
387.2
 10
154.25
 20
386.8
 10
151.45
 20
386.8
 10
145.85
 20
386.0
 10
143.45
 20
385.6
 10
140.65
 20
384.8
 10
138.25
 20
384.4
 10
136.25
 20
383.6
 10
133.85
 20
382.8
 10
131.45
 20
381.6
 10
129.45
 20
380.8
 10
131.85
 20
382.4
 10
134.65
 20
383.6
 10
137.45
 20
385.2
 10
140.25
 20
386.4
 10
143.45
 20
387.2
 10
146.65
 20
388.4
 10
149.85
 20
389.2
 10
153.45
 20
390.0
 10
156.65
 20
390.8
 10
163.85
 20
391.6
 10
163.85
 20
392.8
 10
163.05
 20
394.4
 10
162.25
 20
395.6
 10
161.45
 20
397.2
 10
159.85
 20
399.6
 10
156.25
 20
403.2
 10
153.85
 20
404.8
 10
152.25
 20
405.6
 10
151.05
 20
406.0
 10
149.45
 20
406.8
 10
148.25
 20
407.2
 10
146.65
 20
407.6
 10
145.05
 20
407.6
 10
143.45
 20
408.0
 10
141.85
 20
408.0
 10
140.25
 20
407.6
 10
138.25
 20
407.6
 10
136.65
 20
407.2
 10
136.25
 20
407.2
 10
138.65
 20
408.0
 10
142.65
 20
408.8
 10
150.65
 20
408.8
 10
154.65
 20
408.0
 10
156.25
 20
407.6
 10
157.85
 20
406.8
 10
159.85
 20
406.0
 10
161.45
 20
404.8
 10
162.65
 20
404.0
 10
167.05
 20
399.6
 10
167.85
 20
398.0
 10
168.65
 20
397.2
 10
171.05
 20
400.8
 10
174.25
 20
405.2
 10
177.85
 20
408.4
 10
179.85
 20
410.0
 10
182.25
 20
411.6
 10
187.05
 20
414.0
 10
194.25
 20
416.4
 10
196.65
 20
416.8
 10
204.25
 20
416.8
 10
207.05
 20
416.4
 10
204.65
 20
416.4
 10
202.25
 20
416.0
 10
200.25
 20
416.0
 10
198.25
 20
415.2
 10
196.25
 20
414.8
 10
192.25
 20
413.2
 10
190.65
 20
412.4
 10
189.05
 20
411.2
 10
187.85
 20
410.4
 10
186.25
 20
409.2
 10
182.65
 20
405.6
 10
180.25
 20
402.4
 10
176.25
 20
393.6
 10
175.85
 20
391.6
 10
181.45
 20
391.2
 10
187.45
 20
390.0
 10
192.65
 20
388.4
 10
194.25
 20
388.0
 10
196.65
 20
389.6
 10
199.45
 20
391.2
 10
201.45
 20
392.4
 10
203.85
 20
393.2
 10
206.25
 20
394.4
 10
208.65
 20
395.2
 10
211.05
 20
395.6
 10
213.85
 20
396.4
 10
218.65
 20
397.2
 10
229.85
 20
397.2
 10
231.85
 20
396.8
 10
226.65
 20
396.8
 10
224.65
 20
396.4
 10
222.65
 20
396.4
 10
221.05
 20
396.0
 10
219.05
 20
395.2
 10
217.05
 20
394.8
 10
215.05
 20
394.0
 10
213.05
 20
393.6
 10
211.45
 20
392.8
 10
209.45
 20
391.6
 10
207.45
 20
390.8
 10
205.45
 20
389.6
 10
203.05
 20
388.0
 10
199.85
 20
385.6
 10
202.25
 20
384.4
 10
205.85
 20
382.0
 10
209.45
 20
379.2
 10
211.85
 20
376.0
 10
213.85
 20
372.8
 10
215.05
 20
369.2
 10
215.45
 20
366.0
 10
215.45
 20
364.0
 10
215.05
 20
362.0
 10
213.45
 20
358.0
 10
212.25
 20
356.4
 10
209.05
 20
352.4
 10
207.45
 20
350.8
 10
205.45
 20
349.2
 10
203.45
 20
347.2
 10
201.45
 20
346.0
 10
199.05
 20
344.4
  0
LWPOLYLINE
  5
87
330
1F
100
AcDbEntity
  8
text2
100
AcDbPolyline
 90
       11
 70
     1
 43
0.0
 10
216.6
 20
236.287
 10
220.887
 20
236.287
 10
220.887
 20
232.0
 10
208.029
 20
232.0
 10
208.029
 20
236.287
 10
212.316
 20
236.287
 10
212.316
 20
257.713
 10
208.029
 20
257.713
 10
212.316
 20
262.0
 10
216.6
 20
262.0
 10
216.6
 20
236.287
  0
LWPOLYLINE
  5
88
330
1F
100
AcDbEntity
  8
text2
100
AcDbPolyline
 90
       74
 70
     1
 43
0.0
 10
266.25
 20
372.0
 10
266.65
 20
368.8
 10
266.65
 20
363.2
 10
264.65
 20
356.8
 10
261.45
 20
350.8
 10
257.05
 20
345.2
 10
251.45
 20
340.0
 10
244.65
 20
334.8
 10
236.65
 20
330.8
 10
227.85
 20
326.8
 10
218.25
 20
323.6
 10
207.85
 20
321.2
 10
197.05
 20
319.6
 10
185.45
 20
318.4
 10
175.45
 20
318.4
 10
169.05
 20
318.8
 10
162.65
 20
319.2
 10
156.25
 20
319.6
 10
150.25
 20
320.8
 10
144.25
 20
322.0
 10
138.25
 20
323.2
 10
132.65
 20
324.8
 10
127.45
 20
326.4
 10
122.25
 20
328.4
 10
117.45
 20
330.4
 10
112.65
 20
332.8
 10
108.65
 20
334.8
 10
112.65
 20
333.2
 10
116.25
 20
331.6
 10
120.25
 20
330.0
 10
124.65
 20
328.4
 10
128.65
 20
327.2
 10
133.05
 20
326.4
 10
137.85
 20
325.2
 10
142.25
 20
324.4
 10
147.05
 20
324.0
 10
152.25
 20
323.6
 10
157.45
 20
323.2
 10
172.65
 20
323.2
 10
184.25
 20
324.4
 10
195.05
 20
326.0
 10
205.45
 20
328.4
 10
215.05
 20
331.6
 10
223.85
 20
335.6
 10
231.85
 20
339.6
 10
238.65
 20
344.4
 10
244.25
 20
350.0
 10
248.65
 20
355.6
 10
251.85
 20
361.6
 10
253.85
 20
368.0
 10
254.25
 20
373.2
 10
253.85
 20
376.4
 10
253.45
 20
379.2
 10
253.05
 20
382.0
 10
252.25
 20
384.8
 10
251.05
 20
387.6
 10
249.45
 20
390.4
 10
247.85
 20
392.8
 10
245.85
 20
395.2
 10
243.85
 20
397.6
 10
241.05
 20
400.0
 10
238.25
 20
402.0
 10
235.05
 20
404.4
 10
239.05
 20
402.0
 10
243.45
 20
399.6
 10
247.05
 20
397.2
 10
250.65
 20
394.4
 10
254.25
 20
391.6
 10
257.05
 20
388.4
 10
259.85
 20
385.2
 10
262.25
 20
382.4
 10
263.85
 20
378.8
 10
265.45
 20
375.6
 10
266.25
 20
372.0
  0
LWPOLYLINE
  5
89
330
1F
100
AcDbEntity
  8
text2
100
AcDbPolyline
 90
       11
 70
     1
 43
0.0
 10
300.879
 20
302.0
 10
300.879
 20
314.858
 10
288.021
 20
314.858
 10
288.021
 20
302.0
 10
283.737
 20
302.0
 10
283.737
 20
327.713
 10
288.021
 20
332.0
 10
300.879
 20
332.0
 10
305.163
 20
327.713
 10
305.163
 20
302.0
 10
300.879
 20
302.0
  0
LWPOLYLINE
  5
8A
330
1F
100
AcDbEntity
  8
text2
100
AcDbPolyline
 90
       11
 70
     1
 43
0.0
 10
1876.484
 20
1319.887
 10
1880.771
 20
1319.887
 10
1880.771
 20
1315.6
 10
1867.913
 20
1315.6
 10
1867.913
 20
1319.887
 10
1872.2
 20
1319.887
 10
1872.2
 20
1341.313
 10
1867.913
 20
1341.313
 10
1872.2
 20
1345.6
 10
1876.484
 20
1345.6
 10
1876.484
 20
1319.887
  0
LWPOLYLINE
  5
8B
330
1F
100
AcDbEntity
  8
text2
100
AcDbPolyline
 90
       11
 70
     1
 43
0.0
 10
1902.313
 20
2742.287
 10
1906.6
 20
2742.287
 10
1906.6
 20
2738.0
 10
1893.742
 20
2738.0
 10
1893.742
 20
2742.287
 10
1898.029
 20
2742.287
 10
1898.029
 20
2763.713
 10
1893.742
 20
2763.713
 10
1898.029
 20
2768.0
 10
1902.313
 20
2768.0
 10
1902.313
 20
2742.287
  0
LWPOLYLINE
  5
8C
330
1F
100
AcDbEntity
  8
text2
100
AcDbPolyline
 90
       16
 70
     1
 43
0.0
 10
1899.29
 20
1231.0
 10
1899.29
 20
1241.715
 10
1927.86
 20
1263.145
 10
1927.86
 20
1270.285
 10
1924.29
 20
1273.855
 10
1910.0
 20
1273.855
 10
1906.43
 20
1270.285
 10
1899.29
 20
1273.855
 10
1906.43
 20
1281.0
 10
1927.86
 20
1281.0
 10
1935.0
 20
1273.855
 10
1935.0
 20
1259.57
 10
1906.43
 20
1238.145
 10
1935.0
 20
1238.145
 10
1935.0
 20
1231.0
 10
1899.29
 20
1231.0
  0
LWPOLYLINE
  5
8D
330
1F
100
AcDbEntity
  8
text2
100
AcDbPolyline
 90
        9
 70
     1
 43
0.0
 10
1849.29
 20
1231.0
 10
1849.29
 20
1281.0
 10
1877.86
 20
1281.0
 10
1885.0
 20
1273.855
 10
1885.0
 20
1259.57
 10
1877.86
 20
1252.43
 10
1856.43
 20
1252.43
 10
1856.43
 20
1231.0
 10
1849.29
 20
1231.0
  0
ENDSEC
  0
SECTION
  2
OBJECTS
  0
DICTIONARY
  5
C
330
0
100
AcDbDictionary
281
     1
  3
ACAD_GROUP
350
D
  3
ACAD_LAYOUT
350
1A
  3
ACAD_MLEADERSTYLE
350
8F
  3
ACAD_MLINESTYLE
350
17
  3
ACAD_PLOTSETTINGS
350
19
  3
ACAD_PLOTSTYLENAME
350
E
  3
ACAD_SCALELIST
350
3B
  3
ACAD_TABLESTYLE
350
8E
  3
ACAD_VISUALSTYLE
350
2A
  0
DICTIONARY
  5
D
102
{ACAD_REACTORS
330
C
102
}
330
C
100
AcDbDictionary
281
     1
  0
DICTIONARY
  5
1A
102
{ACAD_REACTORS
330
C
102
}
330
C
100
AcDbDictionary
281
     1
  3
Layout1
350
1E
  3
Layout2
350
26
  3
Model
350
22
  0
DICTIONARY
  5
8F
102
{ACAD_REACTORS
330
C
102
}
330
C
100
AcDbDictionary
281
     1
  0
DICTIONARY
  5
17
102
{ACAD_REACTORS
330
C
102
}
330
C
100
AcDbDictionary
281
     1
  3
Standard
350
18
  0
DICTIONARY
  5
19
102
{ACAD_REACTORS
330
C
102
}
330
C
100
AcDbDictionary
281
     1
  0
ACDBDICTIONARYWDFLT
  5
E
102
{ACAD_REACTORS
330
C
102
}
330
C
100
AcDbDictionary
281
     1
  3
Normal
350
F
100
AcDbDictionaryWithDefault
340
F
  0
DICTIONARY
  5
3B
102
{ACAD_REACTORS
330
C
102
}
330
C
100
AcDbDictionary
281
     1
  3
A0
350
3C
  3
A1
350
3D
  3
A2
350
3E
  3
A3
350
3F
  3
A4
350
40
  3
A5
350
41
  3
A6
350
42
  3
A7
350
43
  3
A8
350
44
  3
A9
350
45
  3
B0
350
46
  3
B1
350
47
  3
B2
350
48
  3
B3
350
49
  3
B4
350
4A
  3
B5
350
4B
  3
B6
350
4C
  3
B7
350
4D
  3
B8
350
4E
  3
B9
350
4F
  3
C0
350
50
  3
C1
350
51
  3
C2
350
52
  3
C3
350
53
  3
C4
350
54
  3
C5
350
55
  3
C6
350
56
  3
C7
350
57
  3
C8
350
58
  3
C9
350
59
  3
D0
350
5A
  3
D1
350
5B
  3
D2
350
5C
  0
DICTIONARY
  5
8E
102
{ACAD_REACTORS
330
C
102
}
330
C
100
AcDbDictionary
281
     1
  0
DICTIONARY
  5
2A
102
{ACAD_REACTORS
330
C
102
}
330
C
100
AcDbDictionary
281
     1
  3
2dWireframe
350
2F
  3
3D Hidden
350
31
  3
3dWireframe
350
30
  3
Basic
350
32
  3
Brighten
350
36
  3
ColorChange
350
3A
  3
Conceptual
350
34
  3
Dim
350
35
  3
Facepattern
350
39
  3
Flat
350
2B
  3
FlatWithEdges
350
2C
  3
Gouraud
350
2D
  3
GouraudWithEdges
350
2E
  3
Linepattern
350
38
  3
Realistic
350
33
  3
Thicken
350
37
  0
LAYOUT
  5
1E
102
{ACAD_REACTORS
330
1A
102
}
330
1A
100
AcDbPlotSettings
  1

  2
none_device
  4

  6

 40
0.0
 41
0.0
 42
0.0
 43
0.0
 44
0.0
 45
0.0
 46
0.0
 47
0.0
 48
0.0
 49
0.0
140
0.0
141
0.0
142
1.0
143
1.0
 70
   688
 72
     0
 73
     0
 74
     5
  7

 75
    16
 76
     0
 77
     2
 78
   300
147
1.0
148
0.0
149
0.0
100
AcDbLayout
  1
Layout1
 70
     1
 71
     1
 10
0.0
 20
0.0
 11
12.0
 21
9.0
 12
0.0
 22
0.0
 32
0.0
 14
1.000000000000000E+20
 24
1.000000000000000E+20
 34
1.000000000000000E+20
 15
-1.000000000000000E+20
 25
-1.000000000000000E+20
 35
-1.000000000000000E+20
146
0.0
 13
0.0
 23
0.0
 33
0.0
 16
1.0
 26
0.0
 36
0.0
 17
0.0
 27
1.0
 37
0.0
 76
     0
330
1B
  0
LAYOUT
  5
26
102
{ACAD_REACTORS
330
1A
102
}
330
1A
100
AcDbPlotSettings
  1

  2
none_device
  4

  6

 40
0.0
 41
0.0
 42
0.0
 43
0.0
 44
0.0
 45
0.0
 46
0.0
 47
0.0
 48
0.0
 49
0.0
140
0.0
141
0.0
142
1.0
143
1.0
 70
   688
 72
     0
 73
     0
 74
     5
  7

 75
    16
 76
     0
 77
     2
 78
   300
147
1.0
148
0.0
149
0.0
100
AcDbLayout
  1
Layout2
 70
     1
 71
     2
 10
0.0
 20
0.0
 11
0.0
 21
0.0
 12
0.0
 22
0.0
 32
0.0
 14
0.0
 24
0.0
 34
0.0
 15
0.0
 25
0.0
 35
0.0
146
0.0
 13
0.0
 23
0.0
 33
0.0
 16
1.0
 26
0.0
 36
0.0
 17
0.0
 27
1.0
 37
0.0
 76
     0
330
23
  0
LAYOUT
  5
22
102
{ACAD_REACTORS
330
1A
102
}
330
1A
100
AcDbPlotSettings
  1

  2
none_device
  4

  6

 40
0.0
 41
0.0
 42
0.0
 43
0.0
 44
0.0
 45
0.0
 46
0.0
 47
0.0
 48
0.0
 49
0.0
140
0.0
141
0.0
142
1.0
143
1.0
 70
  1712
 72
     0
 73
     0
 74
     0
  7

 75
     0
 76
     0
 77
     2
 78
   300
147
1.0
148
0.0
149
0.0
100
AcDbLayout
  1
Model
 70
     1
 71
     0
 10
0.0
 20
0.0
 11
12.0
 21
9.0
 12
0.0
 22
0.0
 32
0.0
 14
1.000000000000000E+20
 24
1.000000000000000E+20
 34
1.000000000000000E+20
 15
-1.000000000000000E+20
 25
-1.000000000000000E+20
 35
-1.000000000000000E+20
146
0.0
 13
0.0
 23
0.0
 33
0.0
 16
1.0
 26
0.0
 36
0.0
 17
0.0
 27
1.0
 37
0.0
 76
     0
330
1F
331
29
  0
MLINESTYLE
  5
18
102
{ACAD_REACTORS
330
17
102
}
330
17
100
AcDbMlineStyle
  2
Standard
 70
     0
  3

 62
   256
 51
90.0
 52
90.0
 71
     2
 49
0.5
 62
   256
  6
BYLAYER
 49
-0.5
 62
   256
  6
BYLAYER
  0
ACDBPLACEHOLDER
  5
F
102
{ACAD_REACTORS
330
E
102
}
330
E
  0
SCALE
  5
3C
102
{ACAD_REACTORS
330
3B
102
}
330
3B
100
AcDbScale
 70
     0
300
1:1
140
1.0
141
1.0
290
     1
  0
SCALE
  5
3D
102
{ACAD_REACTORS
330
3B
102
}
330
3B
100
AcDbScale
 70
     0
300
1:2
140
1.0
141
2.0
290
     0
  0
SCALE
  5
3E
102
{ACAD_REACTORS
330
3B
102
}
330
3B
100
AcDbScale
 70
     0
300
1:4
140
1.0
141
4.0
290
     0
  0
SCALE
  5
3F
102
{ACAD_REACTORS
330
3B
102
}
330
3B
100
AcDbScale
 70
     0
300
1:5
140
1.0
141
5.0
290
     0
  0
SCALE
  5
40
102
{ACAD_REACTORS
330
3B
102
}
330
3B
100
AcDbScale
 70
     0
300
1:8
140
1.0
141
8.0
290
     0
  0
SCALE
  5
41
102
{ACAD_REACTORS
330
3B
102
}
330
3B
100
AcDbScale
 70
     0
300
1:10
140
1.0
141
10.0
290
     0
  0
SCALE
  5
42
102
{ACAD_REACTORS
330
3B
102
}
330
3B
100
AcDbScale
 70
     0
300
1:16
140
1.0
141
16.0
290
     0
  0
SCALE
  5
43
102
{ACAD_REACTORS
330
3B
102
}
330
3B
100
AcDbScale
 70
     0
300
1:20
140
1.0
141
20.0
290
     0
  0
SCALE
  5
44
102
{ACAD_REACTORS
330
3B
102
}
330
3B
100
AcDbScale
 70
     0
300
1:30
140
1.0
141
30.0
290
     0
  0
SCALE
  5
45
102
{ACAD_REACTORS
330
3B
102
}
330
3B
100
AcDbScale
 70
     0
300
1:40
140
1.0
141
40.0
290
     0
  0
SCALE
  5
46
102
{ACAD_REACTORS
330
3B
102
}
330
3B
100
AcDbScale
 70
     0
300
1:50
140
1.0
141
50.0
290
     0
  0
SCALE
  5
47
102
{ACAD_REACTORS
330
3B
102
}
330
3B
100
AcDbScale
 70
     0
300
1:100
140
1.0
141
100.0
290
     0
  0
SCALE
  5
48
102
{ACAD_REACTORS
330
3B
102
}
330
3B
100
AcDbScale
 70
     0
300
2:1
140
2.0
141
1.0
290
     0
  0
SCALE
  5
49
102
{ACAD_REACTORS
330
3B
102
}
330
3B
100
AcDbScale
 70
     0
300
4:1
140
4.0
141
1.0
290
     0
  0
SCALE
  5
4A
102
{ACAD_REACTORS
330
3B
102
}
330
3B
100
AcDbScale
 70
     0
300
8:1
140
8.0
141
1.0
290
     0
  0
SCALE
  5
4B
102
{ACAD_REACTORS
330
3B
102
}
330
3B
100
AcDbScale
 70
     0
300
10:1
140
10.0
141
1.0
290
     0
  0
SCALE
  5
4C
102
{ACAD_REACTORS
330
3B
102
}
330
3B
100
AcDbScale
 70
     0
300
100:1
140
100.0
141
1.0
290
     0
  0
SCALE
  5
4D
102
{ACAD_REACTORS
330
3B
102
}
330
3B
100
AcDbScale
 70
     0
300
1/128" = 1'-0"
140
0.0078125
141
12.0
290
     0
  0
SCALE
  5
4E
102
{ACAD_REACTORS
330
3B
102
}
330
3B
100
AcDbScale
 70
     0
300
1/64" = 1'-0"
140
0.015625
141
12.0
290
     0
  0
SCALE
  5
4F
102
{ACAD_REACTORS
330
3B
102
}
330
3B
100
AcDbScale
 70
     0
300
1/32" = 1'-0"
140
0.03125
141
12.0
290
     0
  0
SCALE
  5
50
102
{ACAD_REACTORS
330
3B
102
}
330
3B
100
AcDbScale
 70
     0
300
1/16" = 1'-0"
140
0.0625
141
12.0
290
     0
  0
SCALE
  5
51
102
{ACAD_REACTORS
330
3B
102
}
330
3B
100
AcDbScale
 70
     0
300
3/32" = 1'-0"
140
0.09375
141
12.0
290
     0
  0
SCALE
  5
52
102
{ACAD_REACTORS
330
3B
102
}
330
3B
100
AcDbScale
 70
     0
300
1/8" = 1'-0"
140
0.125
141
12.0
290
     0
  0
SCALE
  5
53
102
{ACAD_REACTORS
330
3B
102
}
330
3B
100
AcDbScale
 70
     0
300
3/16" = 1'-0"
140
0.1875
141
12.0
290
     0
  0
SCALE
  5
54
102
{ACAD_REACTORS
330
3B
102
}
330
3B
100
AcDbScale
 70
     0
300
1/4" = 1'-0"
140
0.25
141
12.0
290
     0
  0
SCALE
  5
55
102
{ACAD_REACTORS
330
3B
102
}
330
3B
100
AcDbScale
 70
     0
300
3/8" = 1'-0"
140
0.375
141
12.0
290
     0
  0
SCALE
  5
56
102
{ACAD_REACTORS
330
3B
102
}
330
3B
100
AcDbScale
 70
     0
300
1/2" = 1'-0"
140
0.5
141
12.0
290
     0
  0
SCALE
  5
57
102
{ACAD_REACTORS
330
3B
102
}
330
3B
100
AcDbScale
 70
     0
300
3/4" = 1'-0"
140
0.75
141
12.0
290
     0
  0
SCALE
  5
58
102
{ACAD_REACTORS
330
3B
102
}
330
3B
100
AcDbScale
 70
     0
300
1" = 1'-0"
140
1.0
141
12.0
290
     0
  0
SCALE
  5
59
102
{ACAD_REACTORS
330
3B
102
}
330
3B
100
AcDbScale
 70
     0
300
1-1/2" = 1'-0"
140
1.5
141
12.0
290
     0
  0
SCALE
  5
5A
102
{ACAD_REACTORS
330
3B
102
}
330
3B
100
AcDbScale
 70
     0
300
3" = 1'-0"
140
3.0
141
12.0
290
     0
  0
SCALE
  5
5B
102
{ACAD_REACTORS
330
3B
102
}
330
3B
100
AcDbScale
 70
     0
300
6" = 1'-0"
140
6.0
141
12.0
290
     0
  0
SCALE
  5
5C
102
{ACAD_REACTORS
330
3B
102
}
330
3B
100
AcDbScale
 70
     0
300
1'-0" = 1'-0"
140
12.0
141
12.0
290
     0
  0
VISUALSTYLE
  5
2F
102
{ACAD_REACTORS
330
2A
102
}
330
2A
100
AcDbVisualStyle
  2
2dWireframe
 70
     4
 71
     0
 72
     2
 73
     0
 90
        0
 40
-0.6
 41
-30.0
 62
     5
 63
     7
421
 16777215
 74
     1
 91
        4
 64
     7
 65
   257
 75
     1
175
     1
 42
1.0
 92
        0
 66
   257
 43
1.0
 76
     1
 77
     6
 78
     2
 67
     7
 79
     5
170
     0
171
     0
290
     0
174
     0
 93
        1
 44
0.0
173
     0
291
     0
 45
0.0
1001
ACAD
1000
AcDbSavedByObjectVersion
1070
     0
  0
VISUALSTYLE
  5
31
102
{ACAD_REACTORS
330
2A
102
}
330
2A
100
AcDbVisualStyle
  2
3D Hidden
 70
     6
 71
     1
 72
     2
 73
     2
 90
        0
 40
-0.6
 41
-30.0
 62
     5
 63
     7
421
 16777215
 74
     2
 91
        2
 64
     7
 65
   257
 75
     2
175
     1
 42
40.0
 92
        0
 66
   257
 43
1.0
 76
     1
 77
     6
 78
     2
 67
     7
 79
     3
170
     0
171
     0
290
     0
174
     0
 93
        1
 44
0.0
173
     0
291
     0
 45
0.0
1001
ACAD
1000
AcDbSavedByObjectVersion
1070
     0
  0
VISUALSTYLE
  5
30
102
{ACAD_REACTORS
330
2A
102
}
330
2A
100
AcDbVisualStyle
  2
3dWireframe
 70
     5
 71
     0
 72
     2
 73
     0
 90
        0
 40
-0.6
 41
-30.0
 62
     5
 63
     7
421
 16777215
 74
     1
 91
        4
 64
     7
 65
   257
 75
     1
175
     1
 42
1.0
 92
        0
 66
   257
 43
1.0
 76
     1
 77
     6
 78
     2
 67
     7
 79
     5
170
     0
171
     0
290
     0
174
     0
 93
        1
 44
0.0
173
     0
291
     0
 45
0.0
1001
ACAD
1000
AcDbSavedByObjectVersion
1070
     0
  0
VISUALSTYLE
  5
32
102
{ACAD_REACTORS
330
2A
102
}
330
2A
100
AcDbVisualStyle
  2
Basic
 70
     7
 71
     1
 72
     0
 73
     1
 90
        0
 40
-0.6
 41
-30.0
 62
     5
 63
     7
421
 16777215
 74
     0
 91
        4
 64
     7
 65
   257
 75
     1
175
     1
 42
1.0
 92
        8
 66
     7
 43
1.0
 76
     1
 77
     6
 78
     2
 67
     7
 79
     5
170
     0
171
     0
290
     0
174
     0
 93
        1
 44
0.0
173
     0
291
     1
 45
0.0
1001
ACAD
1000
AcDbSavedByObjectVersion
1070
     0
  0
VISUALSTYLE
  5
36
102
{ACAD_REACTORS
330
2A
102
}
330
2A
100
AcDbVisualStyle
  2
Brighten
 70
    12
 71
     2
 72
     2
 73
     0
 90
        0
 40
-0.6
 41
-30.0
 62
     5
 63
     7
421
 16777215
 74
     1
 91
        4
 64
     7
 65
   257
 75
     1
175
     1
 42
1.0
 92
        8
 66
     7
 43
1.0
 76
     1
 77
     6
 78
     2
 67
     7
 79
     5
170
     0
171
     0
290
     0
174
     0
 93
        1
 44
50.0
173
     0
291
     1
 45
0.0
1001
ACAD
1000
AcDbSavedByObjectVersion
1070
     0
  0
VISUALSTYLE
  5
3A
102
{ACAD_REACTORS
330
2A
102
}
330
2A
100
AcDbVisualStyle
  2
ColorChange
 70
    16
 71
     2
 72
     2
 73
     3
 90
        0
 40
-0.6
 41
-30.0
 62
     5
 63
     8
421
  8421504
 74
     1
 91
        4
 64
     7
 65
   257
 75
     1
175
     1
 42
1.0
 92
        8
 66
     8
424
  8421504
 43
1.0
 76
     1
 77
     6
 78
     2
 67
     7
 79
     5
170
     0
171
     0
290
     0
174
     0
 93
        1
 44
0.0
173
     0
291
     1
 45
0.0
1001
ACAD
1000
AcDbSavedByObjectVersion
1070
     0
  0
VISUALSTYLE
  5
34
102
{ACAD_REACTORS
330
2A
102
}
330
2A
100
AcDbVisualStyle
  2
Conceptual
 70
     9
 71
     3
 72
     2
 73
     0
 90
        0
 40
-0.6
 41
-30.0
 62
     5
 63
     7
421
 16777215
 74
     2
 91
        2
 64
     7
 65
   257
 75
     1
175
     1
 42
40.0
 92
        8
 66
     7
 43
1.0
 76
     1
 77
     6
 78
     2
 67
     7
 79
     3
170
     0
171
     0
290
     0
174
     0
 93
        1
 44
0.0
173
     0
291
     0
 45
0.0
1001
ACAD
1000
AcDbSavedByObjectVersion
1070
     0
  0
VISUALSTYLE
  5
35
102
{ACAD_REACTORS
330
2A
102
}
330
2A
100
AcDbVisualStyle
  2
Dim
 70
    11
 71
     2
 72
     2
 73
     0
 90
        0
 40
-0.6
 41
-30.0
 62
     5
 63
     7
421
 16777215
 74
     1
 91
        4
 64
     7
 65
   257
 75
     1
175
     1
 42
1.0
 92
        8
 66
     7
 43
1.0
 76
     1
 77
     6
 78
     2
 67
     7
 79
     5
170
     0
171
     0
290
     0
174
     0
 93
        1
 44
-50.0
173
     0
291
     1
 45
0.0
1001
ACAD
1000
AcDbSavedByObjectVersion
1070
     0
  0
VISUALSTYLE
  5
39
102
{ACAD_REACTORS
330
2A
102
}
330
2A
100
AcDbVisualStyle
  2
Facepattern
 70
    15
 71
     2
 72
     2
 73
     0
 90
        0
 40
-0.6
 41
-30.0
 62
     5
 63
     7
421
 16777215
 74
     1
 91
        4
 64
     7
 65
   257
 75
     1
175
     1
 42
1.0
 92
        8
 66
     7
 43
1.0
 76
     1
 77
     6
 78
     2
 67
     7
 79
     5
170
     0
171
     0
290
     0
174
     0
 93
        1
 44
0.0
173
     0
291
     1
 45
0.0
1001
ACAD
1000
AcDbSavedByObjectVersion
1070
     0
  0
VISUALSTYLE
  5
2B
102
{ACAD_REACTORS
330
2A
102
}
330
2A
100
AcDbVisualStyle
  2
Flat
 70
     0
 71
     2
 72
     1
 73
     1
 90
        2
 40
-0.6
 41
30.0
 62
     5
 63
     7
421
 16777215
 74
     0
 91
        4
 64
     7
 65
   257
 75
     1
175
     1
 42
1.0
 92
        8
 66
     7
 43
1.0
 76
     1
 77
     6
 78
     2
 67
     7
 79
     5
170
     0
171
     0
290
     0
174
     0
 93
       13
 44
0.0
173
     0
291
     1
 45
0.0
1001
ACAD
1000
AcDbSavedByObjectVersion
1070
     0
  0
VISUALSTYLE
  5
2C
102
{ACAD_REACTORS
330
2A
102
}
330
2A
100
AcDbVisualStyle
  2
FlatWithEdges
 70
     1
 71
     2
 72
     1
 73
     1
 90
        2
 40
-0.6
 41
30.0
 62
     5
 63
     7
421
 16777215
 74
     1
 91
        4
 64
     7
 65
   257
 75
     1
175
     1
 42
1.0
 92
        0
 66
   257
 43
1.0
 76
     1
 77
     6
 78
     2
 67
     7
 79
     5
170
     0
171
     0
290
     0
174
     0
 93
       13
 44
0.0
173
     0
291
     1
 45
0.0
1001
ACAD
1000
AcDbSavedByObjectVersion
1070
     0
  0
VISUALSTYLE
  5
2D
102
{ACAD_REACTORS
330
2A
102
}
330
2A
100
AcDbVisualStyle
  2
Gouraud
 70
     2
 71
     2
 72
     2
 73
     1
 90
        2
 40
-0.6
 41
30.0
 62
     5
 63
     7
421
 16777215
 74
     0
 91
        4
 64
     7
 65
   257
 75
     1
175
     1
 42
1.0
 92
        0
 66
     7
 43
1.0
 76
     1
 77
     6
 78
     2
 67
     7
 79
     5
170
     0
171
     0
290
     0
174
     0
 93
       13
 44
0.0
173
     0
291
     1
 45
0.0
1001
ACAD
1000
AcDbSavedByObjectVersion
1070
     0
  0
VISUALSTYLE
  5
2E
102
{ACAD_REACTORS
330
2A
102
}
330
2A
100
AcDbVisualStyle
  2
GouraudWithEdges
 70
     3
 71
     2
 72
     2
 73
     1
 90
        2
 40
-0.6
 41
30.0
 62
     5
 63
     7
421
 16777215
 74
     1
 91
        4
 64
     7
 65
   257
 75
     1
175
     1
 42
1.0
 92
        0
 66
   257
 43
1.0
 76
     1
 77
     6
 78
     2
 67
     7
 79
     5
170
     0
171
     0
290
     0
174
     0
 93
       13
 44
0.0
173
     0
291
     1
 45
0.0
1001
ACAD
1000
AcDbSavedByObjectVersion
1070
     0
  0
VISUALSTYLE
  5
38
102
{ACAD_REACTORS
330
2A
102
}
330
2A
100
AcDbVisualStyle
  2
Linepattern
 70
    14
 71
     2
 72
     2
 73
     0
 90
        0
 40
-0.6
 41
-30.0
 62
     5
 63
     7
421
 16777215
 74
     1
 91
        4
 64
     7
 65
   257
 75
     7
175
     7
 42
1.0
 92
        8
 66
     7
 43
1.0
 76
     1
 77
     6
 78
     2
 67
     7
 79
     5
170
     0
171
     0
290
     0
174
     0
 93
        1
 44
0.0
173
     0
291
     1
 45
0.0
1001
ACAD
1000
AcDbSavedByObjectVersion
1070
     0
  0
VISUALSTYLE
  5
33
102
{ACAD_REACTORS
330
2A
102
}
330
2A
100
AcDbVisualStyle
  2
Realistic
 70
     8
 71
     2
 72
     2
 73
     0
 90
        0
 40
-0.6
 41
-30.0
 62
     5
 63
     7
421
 16777215
 74
     1
 91
        0
 64
     7
 65
   257
 75
     1
175
     1
 42
1.0
 92
        8
 66
     8
424
  7895160
 43
1.0
 76
     1
 77
     6
 78
     2
 67
     7
 79
     5
170
     0
171
     0
290
     0
174
     0
 93
       13
 44
0.0
173
     0
291
     0
 45
0.0
1001
ACAD
1000
AcDbSavedByObjectVersion
1070
     0
  0
VISUALSTYLE
  5
37
102
{ACAD_REACTORS
330
2A
102
}
330
2A
100
AcDbVisualStyle
  2
Thicken
 70
    13
 71
     2
 72
     2
 73
     0
 90
        0
 40
-0.6
 41
-30.0
 62
     5
 63
     7
421
 16777215
 74
     1
 91
        4
 64
     7
 65
   257
 75
     1
175
     1
 42
1.0
 92
       12
 66
     7
 43
1.0
 76
     1
 77
     6
 78
     2
 67
     7
 79
     5
170
     0
171
     0
290
     0
174
     0
 93
        1
 44
0.0
173
     0
291
     1
 45
0.0
1001
ACAD
1000
AcDbSavedByObjectVersion
1070
     0
  0
ENDSEC
  0
EOF
