  0
SECTION
  2
HEADER
  9
$ACADVER
  1
AC1018
  9
$ACADMAINTVER
 70
     0
  9
$DWGCODEPAGE
  3
ANSI_1252
  9
$INSBASE
 10
0.0
 20
0.0
 30
0.0
  9
$EXTMIN
 10
1.000000000000000E+20
 20
1.000000000000000E+20
 30
1.000000000000000E+20
  9
$EXTMAX
 10
-1.000000000000000E+20
 20
-1.000000000000000E+20
 30
-1.000000000000000E+20
  9
$LIMMIN
 10
0.0
 20
0.0
  9
$LIMMAX
 10
12.0
 20
9.0
  9
$ORTHOMODE
 70
     0
  9
$REGENMODE
 70
     1
  9
$FILLMODE
 70
     1
  9
$QTEXTMODE
 70
     0
  9
$MIRRTEXT
 70
     1
  9
$LTSCALE
 40
1.0
  9
$ATTMODE
 70
     1
  9
$TEXTSIZE
 40
0.2
  9
$TRACEWID
 40
0.05
  9
$TEXTSTYLE
  7
Standard
  9
$CLAYER
  8
0
  9
$CELTYPE
  6
ByLayer
  9
$CECOLOR
 62
   256
  9
$CELTSCALE
 40
1.0
  9
$DISPSILH
 70
     0
  9
$DIMSCALE
 40
1.0
  9
$DIMASZ
 40
0.18
  9
$DIMEXO
 40
0.0625
  9
$DIMDLI
 40
0.38
  9
$DIMRND
 40
0.0
  9
$DIMDLE
 40
0.0
  9
$DIMEXE
 40
0.18
  9
$DIMTP
 40
0.0
  9
$DIMTM
 40
0.0
  9
$DIMTXT
 40
0.18
  9
$DIMCEN
 40
0.09
  9
$DIMTSZ
 40
0.0
  9
$DIMTOL
 70
     0
  9
$DIMLIM
 70
     0
  9
$DIMTIH
 70
     1
  9
$DIMTOH
 70
     1
  9
$DIMSE1
 70
     0
  9
$DIMSE2
 70
     0
  9
$DIMTAD
 70
     0
  9
$DIMZIN
 70
     0
  9
$DIMBLK
  1

  9
$DIMASO
 70
     1
  9
$DIMSHO
 70
     1
  9
$DIMPOST
  1

  9
$DIMAPOST
  1

  9
$DIMALT
 70
     0
  9
$DIMALTD
 70
     2
  9
$DIMALTF
 40
25.4
  9
$DIMLFAC
 40
1.0
  9
$DIMTOFL
 70
     0
  9
$DIMTVP
 40
0.0
  9
$DIMTIX
 70
     0
  9
$DIMSOXD
 70
     0
  9
$DIMSAH
 70
     0
  9
$DIMBLK1
  1

  9
$DIMBLK2
  1

  9
$DIMSTYLE
  2
Standard
  9
$DIMCLRD
 70
     0
  9
$DIMCLRE
 70
     0
  9
$DIMCLRT
 70
     0
  9
$DIMTFAC
 40
1.0
  9
$DIMGAP
 40
0.09
  9
$DIMJUST
 70
     0
  9
$DIMSD1
 70
     0
  9
$DIMSD2
 70
     0
  9
$DIMTOLJ
 70
     1
  9
$DIMTZIN
 70
     0
  9
$DIMALTZ
 70
     0
  9
$DIMALTTZ
 70
     0
  9
$DIMUPT
 70
     0
  9
$DIMDEC
 70
     4
  9
$DIMTDEC
 70
     4
  9
$DIMALTU
 70
     2
  9
$DIMALTTD
 70
     2
  9
$DIMTXSTY
  7
Standard
  9
$DIMAUNIT
 70
     0
  9
$DIMADEC
 70
     0
  9
$DIMALTRND
 40
0.0
  9
$DIMAZIN
 70
     0
  9
$DIMDSEP
 70
    46
  9
$DIMATFIT
 70
     3
  9
$DIMFRAC
 70
     0
  9
$DIMLDRBLK
  1

  9
$DIMLUNIT
 70
     2
  9
$DIMLWD
 70
    -2
  9
$DIMLWE
 70
    -2
  9
$DIMTMOVE
 70
     0
  9
$LUNITS
 70
     2
  9
$LUPREC
 70
     4
  9
$SKETCHINC
 40
0.1
  9
$FILLETRAD
 40
0.5
  9
$AUNITS
 70
     0
  9
$AUPREC
 70
     0
  9
$MENU
  1
.
  9
$ELEVATION
 40
0.0
  9
$PELEVATION
 40
0.0
  9
$THICKNESS
 40
0.0
  9
$LIMCHECK
 70
     0
  9
$CHAMFERA
 40
0.5
  9
$CHAMFERB
 40
0.5
  9
$CHAMFERC
 40
1.0
  9
$CHAMFERD
 40
0.0
  9
$SKPOLY
 70
     0
  9
$TDCREATE
 40
2457235.685614387
  9
$TDUCREATE
 40
2457235.602281053
  9
$TDUPDATE
 40
2457235.685614398
  9
$TDUUPDATE
 40
2457235.602281065
  9
$TDINDWG
 40
0.0000000116
  9
$TDUSRTIMER
 40
0.0000000116
  9
$USRTIMER
 70
     1
  9
$ANGBASE
 50
0.0
  9
$ANGDIR
 70
     0
  9
$PDMODE
 70
     0
  9
$PDSIZE
 40
0.0
  9
$PLINEWID
 40
0.0
  9
$SPLFRAME
 70
     0
  9
$SPLINETYPE
 70
     6
  9
$SPLINESEGS
 70
     8
  9
$HANDSEED
  5
C5
  9
$SURFTAB1
 70
     6
  9
$SURFTAB2
 70
     6
  9
$SURFTYPE
 70
     6
  9
$SURFU
 70
     6
  9
$SURFV
 70
     6
  9
$UCSBASE
  2

  9
$UCSNAME
  2

  9
$UCSORG
 10
0.0
 20
0.0
 30
0.0
  9
$UCSXDIR
 10
1.0
 20
0.0
 30
0.0
  9
$UCSYDIR
 10
0.0
 20
1.0
 30
0.0
  9
$UCSORTHOREF
  2

  9
$UCSORTHOVIEW
 70
     0
  9
$UCSORGTOP
 10
0.0
 20
0.0
 30
0.0
  9
$UCSORGBOTTOM
 10
0.0
 20
0.0
 30
0.0
  9
$UCSORGLEFT
 10
0.0
 20
0.0
 30
0.0
  9
$UCSORGRIGHT
 10
0.0
 20
0.0
 30
0.0
  9
$UCSORGFRONT
 10
0.0
 20
0.0
 30
0.0
  9
$UCSORGBACK
 10
0.0
 20
0.0
 30
0.0
  9
$PUCSBASE
  2

  9
$PUCSNAME
  2

  9
$PUCSORG
 10
0.0
 20
0.0
 30
0.0
  9
$PUCSXDIR
 10
1.0
 20
0.0
 30
0.0
  9
$PUCSYDIR
 10
0.0
 20
1.0
 30
0.0
  9
$PUCSORTHOREF
  2

  9
$PUCSORTHOVIEW
 70
     0
  9
$PUCSORGTOP
 10
0.0
 20
0.0
 30
0.0
  9
$PUCSORGBOTTOM
 10
0.0
 20
0.0
 30
0.0
  9
$PUCSORGLEFT
 10
0.0
 20
0.0
 30
0.0
  9
$PUCSORGRIGHT
 10
0.0
 20
0.0
 30
0.0
  9
$PUCSORGFRONT
 10
0.0
 20
0.0
 30
0.0
  9
$PUCSORGBACK
 10
0.0
 20
0.0
 30
0.0
  9
$USERI1
 70
     0
  9
$USERI2
 70
     0
  9
$USERI3
 70
     0
  9
$USERI4
 70
     0
  9
$USERI5
 70
     0
  9
$USERR1
 40
0.0
  9
$USERR2
 40
0.0
  9
$USERR3
 40
0.0
  9
$USERR4
 40
0.0
  9
$USERR5
 40
0.0
  9
$WORLDVIEW
 70
     1
  9
$SHADEDGE
 70
     3
  9
$SHADEDIF
 70
    70
  9
$TILEMODE
 70
     1
  9
$MAXACTVP
 70
    64
  9
$PINSBASE
 10
0.0
 20
0.0
 30
0.0
  9
$PLIMCHECK
 70
     0
  9
$PEXTMIN
 10
1.000000000000000E+20
 20
1.000000000000000E+20
 30
1.000000000000000E+20
  9
$PEXTMAX
 10
-1.000000000000000E+20
 20
-1.000000000000000E+20
 30
-1.000000000000000E+20
  9
$PLIMMIN
 10
0.0
 20
0.0
  9
$PLIMMAX
 10
12.0
 20
9.0
  9
$UNITMODE
 70
     0
  9
$VISRETAIN
 70
     1
  9
$PLINEGEN
 70
     0
  9
$PSLTSCALE
 70
     1
  9
$TREEDEPTH
 70
  3020
  9
$CMLSTYLE
  2
Standard
  9
$CMLJUST
 70
     0
  9
$CMLSCALE
 40
1.0
  9
$PROXYGRAPHICS
 70
     1
  9
$MEASUREMENT
 70
     0
  9
$CELWEIGHT
370
    -1
  9
$ENDCAPS
280
     0
  9
$JOINSTYLE
280
     0
  9
$LWDISPLAY
290
     0
  9
$INSUNITS
 70
    13
  9
$HYPERLINKBASE
  1

  9
$STYLESHEET
  1

  9
$XEDIT
290
     1
  9
$CEPSNTYPE
380
     0
  9
$PSTYLEMODE
290
     1
  9
$FINGERPRINTGUID
  2
{4D28EC1D-D122-417E-9137-39F7212E1329}
  9
$VERSIONGUID
  2
{FAEB1C32-E019-11D5-929B-00C0DF256EC4}
  9
$EXTNAMES
290
     1
  9
$PSVPSCALE
 40
0.0
  9
$OLESTARTUP
290
     0
  9
$SORTENTS
280
   127
  9
$INDEXCTL
280
     0
  9
$HIDETEXT
280
     1
  9
$XCLIPFRAME
290
     0
  9
$HALOGAP
280
     0
  9
$OBSCOLOR
 70
   257
  9
$OBSLTYPE
280
     0
  9
$INTERSECTIONDISPLAY
280
     0
  9
$INTERSECTIONCOLOR
 70
   257
  9
$DIMASSOC
280
     2
  9
$PROJECTNAME
  1

  0
ENDSEC
  0
SECTION
  2
CLASSES
  0
CLASS
  1
ACDBDICTIONARYWDFLT
  2
AcDbDictionaryWithDefault
  3
ObjectDBX Classes
 90
        0
 91
        6
280
     0
281
     0
  0
CLASS
  1
VISUALSTYLE
  2
AcDbVisualStyle
  3
ObjectDBX Classes
 90
     4095
 91
        6
280
     0
281
     0
  0
CLASS
  1
SCALE
  2
AcDbScale
  3
ObjectDBX Classes
 90
     1153
 91
        6
280
     0
281
     0
  0
ENDSEC
  0
SECTION
  2
TABLES
  0
TABLE
  2
VPORT
  5
8
330
0
100
AcDbSymbolTable
 70
     1
  0
VPORT
  5
29
330
8
100
AcDbSymbolTableRecord
100
AcDbViewportTableRecord
  2
*Active
 70
     0
 10
0.0
 20
0.0
 11
1.0
 21
1.0
 12
10.42990654205607
 22
4.5
 13
0.0
 23
0.0
 14
0.5
 24
0.5
 15
0.5
 25
0.5
 16
0.0
 26
0.0
 36
1.0
 17
0.0
 27
0.0
 37
0.0
 40
9.0
 41
1.972972972850329
 42
50.0
 43
0.0
 44
0.0
 50
0.0
 51
0.0
 71
     0
 72
   100
 73
     1
 74
     3
 75
     0
 76
     0
 77
     0
 78
     0
281
     0
 65
     1
110
0.0
120
0.0
130
0.0
111
1.0
121
0.0
131
0.0
112
0.0
122
1.0
132
0.0
 79
     0
146
0.0
  0
ENDTAB
  0
TABLE
  2
LTYPE
  5
5
330
0
100
AcDbSymbolTable
 70
     1
  0
LTYPE
  5
14
330
5
100
AcDbSymbolTableRecord
100
AcDbLinetypeTableRecord
  2
ByBlock
 70
     0
  3

 72
    65
 73
     0
 40
0.0
  0
LTYPE
  5
15
330
5
100
AcDbSymbolTableRecord
100
AcDbLinetypeTableRecord
  2
ByLayer
 70
     0
  3

 72
    65
 73
     0
 40
0.0
  0
LTYPE
  5
16
330
5
100
AcDbSymbolTableRecord
100
AcDbLinetypeTableRecord
  2
Continuous
 70
     0
  3
Solid line
 72
    65
 73
     0
 40
0.0
  0
ENDTAB
  0
TABLE
  2
LAYER
  5
2
330
0
100
AcDbSymbolTable
 70
     2
  0
LAYER
  5
10
330
2
100
AcDbSymbolTableRecord
100
AcDbLayerTableRecord
  2
0
 70
     0
 62
     7
  6
Continuous
370
    -3
390
F
  0
LAYER
  5
60
330
2
100
AcDbSymbolTableRecord
100
AcDbLayerTableRecord
  2
text2
 70
     0
 62
    16
420
  8388608
  6
Continuous
370
    -3
390
F
  0
ENDTAB
  0
TABLE
  2
STYLE
  5
3
330
0
100
AcDbSymbolTable
 70
     1
  0
STYLE
  5
11
330
3
100
AcDbSymbolTableRecord
100
AcDbTextStyleTableRecord
  2
Standard
 70
     0
 40
0.0
 41
1.0
 50
0.0
 71
     0
 42
0.2
  3
txt
  4

  0
ENDTAB
  0
TABLE
  2
VIEW
  5
6
330
0
100
AcDbSymbolTable
 70
     0
  0
ENDTAB
  0
TABLE
  2
UCS
  5
7
330
0
100
AcDbSymbolTable
 70
     0
  0
ENDTAB
  0
TABLE
  2
APPID
  5
9
330
0
100
AcDbSymbolTable
 70
     1
  0
APPID
  5
12
330
9
100
AcDbSymbolTableRecord
100
AcDbRegAppTableRecord
  2
ACAD
 70
     0
  0
ENDTAB
  0
TABLE
  2
DIMSTYLE
  5
A
330
0
100
AcDbSymbolTable
 70
     1
100
AcDbDimStyleTable
  0
DIMSTYLE
105
27
330
A
100
AcDbSymbolTableRecord
100
AcDbDimStyleTableRecord
  2
Standard
 70
     0
340
11
  0
ENDTAB
  0
TABLE
  2
BLOCK_RECORD
  5
1
330
0
100
AcDbSymbolTable
 70
     3
  0
BLOCK_RECORD
  5
1F
330
1
100
AcDbSymbolTableRecord
100
AcDbBlockTableRecord
  2
*Model_Space
340
22
  0
BLOCK_RECORD
  5
1B
330
1
100
AcDbSymbolTableRecord
100
AcDbBlockTableRecord
  2
*Paper_Space
340
1E
  0
BLOCK_RECORD
  5
23
330
1
100
AcDbSymbolTableRecord
100
AcDbBlockTableRecord
  2
*Paper_Space0
340
26
  0
BLOCK_RECORD
  5
BC
330
1
100
AcDbSymbolTableRecord
100
AcDbBlockTableRecord
  2
win_pp10_chip_street_0
340
0
102
{BLKREFS
331
5D
102
}
  0
BLOCK_RECORD
  5
C0
330
1
100
AcDbSymbolTableRecord
100
AcDbBlockTableRecord
  2
win_pp10_mlin_d_25
340
0
102
{BLKREFS
331
5E
102
}
  0
ENDTAB
  0
ENDSEC
  0
SECTION
  2
BLOCKS
  0
BLOCK
  5
20
330
1F
100
AcDbEntity
  8
0
100
AcDbBlockBegin
  2
*Model_Space
 70
     0
 10
0.0
 20
0.0
 30
0.0
  3
*Model_Space
  1

  0
ENDBLK
  5
21
330
1F
100
AcDbEntity
  8
0
100
AcDbBlockEnd
  0
BLOCK
  5
1C
330
1B
100
AcDbEntity
 67
     1
  8
0
100
AcDbBlockBegin
  2
*Paper_Space
 70
     0
 10
0.0
 20
0.0
 30
0.0
  3
*Paper_Space
  1

  0
ENDBLK
  5
1D
330
1B
100
AcDbEntity
 67
     1
  8
0
100
AcDbBlockEnd
  0
BLOCK
  5
24
330
23
100
AcDbEntity
  8
0
100
AcDbBlockBegin
  2
*Paper_Space0
 70
     0
 10
0.0
 20
0.0
 30
0.0
  3
*Paper_Space0
  1

  0
ENDBLK
  5
25
330
23
100
AcDbEntity
  8
0
100
AcDbBlockEnd
  0
BLOCK
  5
BD
330
BC
100
AcDbEntity
  8
0
100
AcDbBlockBegin
  2
win_pp10_chip_street_0
 70
     0
 10
0.0
 20
0.0
 30
0.0
  3
win_pp10_chip_street_0
  1

  0
LWPOLYLINE
  5
BF
330
BC
100
AcDbEntity
  8
text2
100
AcDbPolyline
 90
        4
 70
     1
 43
0.0
 10
-600.0
 20
-400.0
 10
-600.0
 20
1200.0
 10
1400.0
 20
1200.0
 10
1400.0
 20
-400.0
  0
ENDBLK
  5
BE
330
BC
100
AcDbEntity
  8
0
100
AcDbBlockEnd
  0
BLOCK
  5
C1
330
C0
100
AcDbEntity
  8
0
100
AcDbBlockBegin
  2
win_pp10_mlin_d_25
 70
     0
 10
0.0
 20
0.0
 30
0.0
  3
win_pp10_mlin_d_25
  1

  0
ENDBLK
  5
C2
330
C0
100
AcDbEntity
  8
0
100
AcDbBlockEnd
  0
ENDSEC
  0
SECTION
  2
ENTITIES
  0
INSERT
  5
5D
330
1F
100
AcDbEntity
  8
0
100
AcDbBlockReference
  2
win_pp10_chip_street_0
 10
600.0
 20
400.0
 30
0.0
  0
INSERT
  5
5E
330
1F
100
AcDbEntity
  8
0
100
AcDbBlockReference
  2
win_pp10_mlin_d_25
 10
1735.0
 20
1335.0
 30
0.0
  0
LWPOLYLINE
  5
5F
330
1F
100
AcDbEntity
  8
text2
100
AcDbPolyline
 90
       16
 70
     1
 43
0.0
 10
1890.075
 20
957.767
 10
1890.075
 20
968.482
 10
1918.645
 20
989.912
 10
1918.645
 20
997.052
 10
1915.075
 20
1000.622
 10
1900.785
 20
1000.622
 10
1897.215
 20
997.052
 10
1890.075
 20
1000.622
 10
1897.215
 20
1007.767
 10
1918.645
 20
1007.767
 10
1925.785
 20
1000.622
 10
1925.785
 20
986.337
 10
1897.215
 20
964.912
 10
1925.785
 20
964.912
 10
1925.785
 20
957.767
 10
1890.075
 20
957.767
  0
LWPOLYLINE
  5
61
330
1F
100
AcDbEntity
  8
text2
100
AcDbPolyline
 90
        7
 70
     1
 43
0.0
 10
1847.215
 20
986.337
 10
1865.075
 20
986.337
 10
1868.645
 20
989.912
 10
1868.645
 20
997.052
 10
1865.075
 20
1000.622
 10
1847.215
 20
1000.622
 10
1847.215
 20
986.337
  0
LWPOLYLINE
  5
62
330
1F
100
AcDbEntity
  8
text2
100
AcDbPolyline
 90
        9
 70
     1
 43
0.0
 10
1840.075
 20
957.767
 10
1840.075
 20
1007.767
 10
1868.645
 20
1007.767
 10
1875.785
 20
1000.622
 10
1875.785
 20
986.337
 10
1868.645
 20
979.197
 10
1847.215
 20
979.197
 10
1847.215
 20
957.767
 10
1840.075
 20
957.767
  0
LWPOLYLINE
  5
63
330
1F
100
AcDbEntity
  8
text2
100
AcDbPolyline
 90
        9
 70
     1
 43
0.0
 10
1565.075
 20
96.63
 10
1565.075
 20
132.34
 10
1572.215
 20
139.485
 10
1586.505
 20
139.485
 10
1593.645
 20
132.34
 10
1593.645
 20
96.63
 10
1586.505
 20
89.485
 10
1572.215
 20
89.485
 10
1565.075
 20
96.63
  0
LWPOLYLINE
  5
64
330
1F
100
AcDbEntity
  8
text2
100
AcDbPolyline
 90
       51
 70
     1
 43
0.0
 10
1802.3
 20
128.025
 10
1800.5
 20
128.225
 10
1797.3
 20
128.625
 10
1790.9
 20
129.825
 10
1783.7
 20
131.425
 10
1776.9
 20
133.825
 10
1770.5
 20
136.625
 10
1764.9
 20
139.825
 10
1759.7
 20
143.425
 10
1754.9
 20
147.025
 10
1751.3
 20
151.025
 10
1748.1
 20
155.425
 10
1745.7
 20
159.425
 10
1744.5
 20
164.225
 10
1744.1
 20
168.625
 10
1744.5
 20
172.225
 10
1745.3
 20
176.225
 10
1746.1
 20
178.225
 10
1746.9
 20
179.825
 10
1750.5
 20
184.625
 10
1752.1
 20
185.825
 10
1754.1
 20
187.025
 10
1755.7
 20
188.225
 10
1760.5
 20
190.625
 10
1757.3
 20
189.425
 10
1751.7
 20
187.025
 10
1748.9
 20
185.425
 10
1746.5
 20
183.425
 10
1744.1
 20
181.825
 10
1740.1
 20
177.825
 10
1738.5
 20
175.825
 10
1737.3
 20
173.425
 10
1736.5
 20
171.425
 10
1735.7
 20
169.025
 10
1735.3
 20
165.025
 10
1735.7
 20
160.625
 10
1737.3
 20
156.225
 10
1739.3
 20
151.825
 10
1742.5
 20
147.425
 10
1746.1
 20
143.425
 10
1750.9
 20
139.825
 10
1756.1
 20
136.225
 10
1761.7
 20
133.025
 10
1768.1
 20
130.625
 10
1774.9
 20
128.225
 10
1782.1
 20
126.225
 10
1788.5
 20
125.025
 10
1792.9
 20
124.625
 10
1796.9
 20
124.225
 10
1802.3
 20
124.225
 10
1802.3
 20
128.025
  0
LWPOLYLINE
  5
65
330
1F
100
AcDbEntity
  8
text2
100
AcDbPolyline
 90
       95
 70
     1
 43
0.0
 10
1802.3
 20
189.225
 10
1800.1
 20
191.425
 10
1798.9
 20
192.225
 10
1797.3
 20
193.425
 10
1795.3
 20
194.225
 10
1793.7
 20
195.025
 10
1792.1
 20
195.425
 10
1788.1
 20
196.225
 10
1780.1
 20
196.225
 10
1776.1
 20
195.425
 10
1773.7
 20
194.625
 10
1774.1
 20
194.625
 10
1775.7
 20
195.025
 10
1777.7
 20
195.025
 10
1779.3
 20
195.425
 10
1780.9
 20
195.425
 10
1782.5
 20
195.025
 10
1784.1
 20
195.025
 10
1785.7
 20
194.625
 10
1786.9
 20
194.225
 10
1788.5
 20
193.425
 10
1789.7
 20
193.025
 10
1791.3
 20
192.225
 10
1793.7
 20
190.625
 10
1797.3
 20
187.025
 10
1798.9
 20
184.625
 10
1799.7
 20
183.025
 10
1800.5
 20
181.825
 10
1801.3
 20
180.225
 10
1801.3
 20
179.025
 10
1794.1
 20
178.225
 10
1790.9
 20
177.425
 10
1787.3
 20
176.625
 10
1784.1
 20
175.825
 10
1780.9
 20
174.625
 10
1777.7
 20
173.825
 10
1774.9
 20
172.625
 10
1772.1
 20
171.025
 10
1769.3
 20
169.825
 10
1766.9
 20
168.225
 10
1768.9
 20
169.025
 10
1771.3
 20
170.225
 10
1773.7
 20
171.025
 10
1775.7
 20
171.825
 10
1778.1
 20
172.225
 10
1780.9
 20
173.025
 10
1783.3
 20
173.425
 10
1788.9
 20
174.225
 10
1791.7
 20
174.225
 10
1794.5
 20
174.625
 10
1800.1
 20
175.025
 10
1802.1
 20
175.025
 10
1801.7
 20
174.225
 10
1800.5
 20
169.025
 10
1800.1
 20
163.825
 10
1800.1
 20
158.225
 10
1800.5
 20
155.025
 10
1798.1
 20
156.225
 10
1796.1
 20
156.625
 10
1794.5
 20
157.425
 10
1792.5
 20
157.425
 10
1790.9
 20
157.825
 10
1788.9
 20
157.825
 10
1786.9
 20
157.425
 10
1785.3
 20
157.425
 10
1783.3
 20
156.625
 10
1781.7
 20
156.225
 10
1779.7
 20
155.425
 10
1778.1
 20
154.625
 10
1776.1
 20
153.425
 10
1774.5
 20
152.625
 10
1772.5
 20
151.425
 10
1769.7
 20
148.625
 10
1770.9
 20
149.425
 10
1772.5
 20
150.625
 10
1774.1
 20
151.425
 10
1775.3
 20
152.225
 10
1778.5
 20
153.025
 10
1779.7
 20
153.425
 10
1781.3
 20
153.825
 10
1782.9
 20
153.825
 10
1784.5
 20
154.225
 10
1786.1
 20
153.825
 10
1787.3
 20
153.825
 10
1788.9
 20
153.425
 10
1790.5
 20
153.425
 10
1792.1
 20
153.025
 10
1793.3
 20
152.625
 10
1795.7
 20
151.025
 10
1796.9
 20
150.625
 10
1798.1
 20
149.425
 10
1800.5
 20
147.825
 10
1801.3
 20
146.625
 10
1802.3
 20
145.625
 10
1802.3
 20
189.225
  0
LWPOLYLINE
  5
66
330
1F
100
AcDbEntity
  8
text2
100
AcDbPolyline
 90
      142
 70
     1
 43
0.0
 10
1869.3
 20
184.225
 10
1867.3
 20
184.625
 10
1856.1
 20
184.625
 10
1851.3
 20
183.825
 10
1848.5
 20
183.025
 10
1846.1
 20
182.625
 10
1843.7
 20
181.825
 10
1841.3
 20
180.625
 10
1838.9
 20
179.825
 10
1836.9
 20
178.625
 10
1834.1
 20
177.025
 10
1831.7
 20
175.425
 10
1830.1
 20
175.825
 10
1824.9
 20
177.425
 10
1818.9
 20
178.625
 10
1813.3
 20
179.025
 10
1813.7
 20
181.025
 10
1817.7
 20
189.825
 10
1820.1
 20
193.025
 10
1823.7
 20
196.625
 10
1825.3
 20
197.825
 10
1826.5
 20
198.625
 10
1828.1
 20
199.825
 10
1829.7
 20
200.625
 10
1833.7
 20
202.225
 10
1835.7
 20
202.625
 10
1837.7
 20
203.425
 10
1839.7
 20
203.425
 10
1842.1
 20
203.825
 10
1844.5
 20
203.825
 10
1841.7
 20
204.225
 10
1834.1
 20
204.225
 10
1831.7
 20
203.825
 10
1824.5
 20
201.425
 10
1819.7
 20
199.025
 10
1817.3
 20
197.425
 10
1815.3
 20
195.825
 10
1811.7
 20
192.625
 10
1808.5
 20
188.225
 10
1806.1
 20
184.625
 10
1805.3
 20
185.425
 10
1804.5
 20
187.025
 10
1802.3
 20
189.225
 10
1802.3
 20
145.625
 10
1802.5
 20
145.425
 10
1803.3
 20
144.225
 10
1803.7
 20
143.825
 10
1804.1
 20
142.625
 10
1806.5
 20
137.825
 10
1809.3
 20
134.225
 10
1810.9
 20
131.825
 10
1814.9
 20
127.825
 10
1815.7
 20
127.425
 10
1807.3
 20
127.425
 10
1804.1
 20
127.825
 10
1802.3
 20
128.025
 10
1802.3
 20
124.225
 10
1804.9
 20
124.225
 10
1816.9
 20
125.425
 10
1817.7
 20
125.825
 10
1819.3
 20
124.625
 10
1821.3
 20
123.025
 10
1823.7
 20
122.225
 10
1826.1
 20
121.025
 10
1830.9
 20
119.425
 10
1833.7
 20
119.025
 10
1836.1
 20
119.025
 10
1832.1
 20
119.825
 10
1828.1
 20
121.425
 10
1826.5
 20
122.225
 10
1824.9
 20
123.425
 10
1822.5
 20
125.825
 10
1822.1
 20
126.625
 10
1824.1
 20
127.025
 10
1827.3
 20
128.225
 10
1830.5
 20
129.025
 10
1833.3
 20
130.225
 10
1830.9
 20
129.425
 10
1828.1
 20
128.625
 10
1822.5
 20
127.825
 10
1821.7
 20
127.825
 10
1821.3
 20
128.225
 10
1820.1
 20
131.425
 10
1819.7
 20
134.625
 10
1819.3
 20
138.225
 10
1819.7
 20
142.225
 10
1820.5
 20
146.225
 10
1821.7
 20
150.225
 10
1823.3
 20
154.225
 10
1825.3
 20
158.225
 10
1827.7
 20
162.225
 10
1830.1
 20
165.825
 10
1832.1
 20
168.225
 10
1832.9
 20
167.425
 10
1836.9
 20
165.025
 10
1840.1
 20
162.225
 10
1842.9
 20
159.025
 10
1844.9
 20
155.825
 10
1846.1
 20
152.225
 10
1846.5
 20
149.425
 10
1846.5
 20
147.825
 10
1846.1
 20
145.825
 10
1846.1
 20
144.225
 10
1845.7
 20
143.025
 10
1844.1
 20
139.825
 10
1843.3
 20
138.625
 10
1842.5
 20
137.025
 10
1841.3
 20
135.825
 10
1839.7
 20
134.625
 10
1838.1
 20
133.025
 10
1836.5
 20
131.825
 10
1838.9
 20
133.425
 10
1840.9
 20
134.625
 10
1842.9
 20
136.625
 10
1844.9
 20
138.225
 10
1846.5
 20
139.825
 10
1849.7
 20
143.825
 10
1850.9
 20
145.425
 10
1852.5
 20
149.425
 10
1852.9
 20
151.425
 10
1852.9
 20
153.425
 10
1852.5
 20
156.625
 10
1851.3
 20
160.225
 10
1849.3
 20
163.425
 10
1846.9
 20
166.625
 10
1843.3
 20
169.425
 10
1839.7
 20
171.825
 10
1837.3
 20
173.025
 10
1840.5
 20
175.425
 10
1842.9
 20
177.025
 10
1844.9
 20
178.225
 10
1846.9
 20
179.025
 10
1848.9
 20
180.225
 10
1850.5
 20
181.025
 10
1852.5
 20
181.425
 10
1854.5
 20
182.225
 10
1856.5
 20
182.625
 10
1858.5
 20
183.425
 10
1860.1
 20
183.825
 10
1862.1
 20
183.825
 10
1864.1
 20
184.225
 10
1869.3
 20
184.225
  0
LWPOLYLINE
  5
67
330
1F
100
AcDbEntity
  8
text2
100
AcDbPolyline
 90
        4
 70
     1
 43
0.0
 10
66.0
 20
370.35
 10
66.0
 20
445.35
 10
141.0
 20
445.35
 10
141.0
 20
370.35
  0
LWPOLYLINE
  5
68
330
1F
100
AcDbEntity
  8
text2
100
AcDbPolyline
 90
        4
 70
     1
 43
0.0
 10
66.0
 20
495.35
 10
66.0
 20
570.35
 10
141.0
 20
570.35
 10
141.0
 20
495.35
  0
LWPOLYLINE
  5
69
330
1F
100
AcDbEntity
  8
text2
100
AcDbPolyline
 90
        4
 70
     1
 43
0.0
 10
66.0
 20
620.35
 10
66.0
 20
695.35
 10
141.0
 20
695.35
 10
141.0
 20
620.35
  0
LWPOLYLINE
  5
6A
330
1F
100
AcDbEntity
  8
text2
100
AcDbPolyline
 90
        4
 70
     1
 43
0.0
 10
66.0
 20
745.35
 10
66.0
 20
820.35
 10
141.0
 20
820.35
 10
141.0
 20
745.35
  0
LWPOLYLINE
  5
6B
330
1F
100
AcDbEntity
  8
text2
100
AcDbPolyline
 90
        4
 70
     1
 43
0.0
 10
66.0
 20
870.35
 10
66.0
 20
945.35
 10
141.0
 20
945.35
 10
141.0
 20
870.35
  0
LWPOLYLINE
  5
6C
330
1F
100
AcDbEntity
  8
text2
100
AcDbPolyline
 90
        4
 70
     1
 43
0.0
 10
66.0
 20
995.35
 10
66.0
 20
1070.35
 10
141.0
 20
1070.35
 10
141.0
 20
995.35
  0
LWPOLYLINE
  5
6D
330
1F
100
AcDbEntity
  8
text2
100
AcDbPolyline
 90
        4
 70
     1
 43
0.0
 10
66.0
 20
1120.35
 10
66.0
 20
1195.35
 10
141.0
 20
1195.35
 10
141.0
 20
1120.35
  0
LWPOLYLINE
  5
6E
330
1F
100
AcDbEntity
  8
text2
100
AcDbPolyline
 90
       26
 70
     1
 43
0.0
 10
748.7
 20
87.60000000000001
 10
749.5
 20
82.5
 10
748.7
 20
77.4
 10
746.3000000000001
 20
72.7
 10
742.7
 20
69.10000000000001
 10
738.0
 20
66.7
 10
733.6
 20
66.0
 10
656.2
 20
66.0
 10
656.2
 20
130.8
 10
656.9
 20
135.2
 10
659.3000000000001
 20
139.9
 10
662.9
 20
143.5
 10
667.6
 20
145.9
 10
672.7
 20
146.7
 10
677.8000000000001
 20
145.9
 10
682.5
 20
143.5
 10
686.1
 20
139.9
 10
688.5
 20
135.2
 10
689.2
 20
130.8
 10
689.2
 20
121.5
 10
724.4
 20
99.0
 10
733.6
 20
99.0
 10
738.0
 20
98.3
 10
742.7
 20
95.9
 10
746.3000000000001
 20
92.3
 10
748.7
 20
87.60000000000001
  0
LWPOLYLINE
  5
6F
330
1F
100
AcDbEntity
  8
text2
100
AcDbPolyline
 90
        9
 70
     1
 43
0.0
 10
602.7
 20
164.8
 10
615.2
 20
134.8
 10
615.2
 20
66.0
 10
557.2
 20
66.0
 10
557.2
 20
134.8
 10
569.7
 20
164.8
 10
569.7
 20
174.0
 10
602.7
 20
174.0
 10
602.7
 20
164.8
  0
LWPOLYLINE
  5
70
330
1F
100
AcDbEntity
  8
text2
100
AcDbPolyline
 90
       26
 70
     1
 43
0.0
 10
515.5
 20
135.2
 10
516.2
 20
130.8
 10
516.2
 20
66.0
 10
438.8
 20
66.0
 10
434.4
 20
66.7
 10
429.7
 20
69.10000000000001
 10
426.1
 20
72.7
 10
423.7
 20
77.4
 10
422.9
 20
82.5
 10
423.7
 20
87.60000000000001
 10
426.1
 20
92.3
 10
429.7
 20
95.9
 10
434.4
 20
98.3
 10
438.8
 20
99.0
 10
448.0
 20
99.0
 10
483.2
 20
121.5
 10
483.2
 20
130.8
 10
483.9
 20
135.2
 10
486.3
 20
139.9
 10
489.9
 20
143.5
 10
494.6
 20
145.9
 10
499.7
 20
146.7
 10
504.8
 20
145.9
 10
509.5
 20
143.5
 10
513.1
 20
139.9
 10
515.5
 20
135.2
  0
LWPOLYLINE
  5
71
330
1F
100
AcDbEntity
  8
text2
100
AcDbPolyline
 90
        9
 70
     1
 43
0.0
 10
1826.0
 20
766.35
 10
1826.0
 20
799.35
 10
1835.2
 20
799.35
 10
1865.2
 20
811.85
 10
1934.0
 20
811.85
 10
1934.0
 20
753.85
 10
1865.2
 20
753.85
 10
1835.2
 20
766.35
 10
1826.0
 20
766.35
  0
LWPOLYLINE
  5
72
330
1F
100
AcDbEntity
  8
text2
100
AcDbPolyline
 90
       26
 70
     1
 43
0.0
 10
1901.0
 20
635.45
 10
1901.0
 20
644.65
 10
1878.5
 20
679.85
 10
1869.2
 20
679.85
 10
1864.8
 20
680.5500000000001
 10
1860.1
 20
682.95
 10
1856.5
 20
686.5500000000001
 10
1854.1
 20
691.25
 10
1853.3
 20
696.35
 10
1854.1
 20
701.45
 10
1856.5
 20
706.15
 10
1860.1
 20
709.75
 10
1864.8
 20
712.15
 10
1869.2
 20
712.85
 10
1934.0
 20
712.85
 10
1934.0
 20
635.45
 10
1933.3
 20
631.0500000000001
 10
1930.9
 20
626.35
 10
1927.3
 20
622.75
 10
1922.6
 20
620.35
 10
1917.5
 20
619.5500000000001
 10
1912.4
 20
620.35
 10
1907.7
 20
622.75
 10
1904.1
 20
626.35
 10
1901.7
 20
631.0500000000001
 10
1901.0
 20
635.45
  0
LWPOLYLINE
  5
73
330
1F
100
AcDbEntity
  8
text2
100
AcDbPolyline
 90
       26
 70
     1
 43
0.0
 10
1933.3
 20
934.65
 10
1934.0
 20
930.25
 10
1934.0
 20
852.85
 10
1869.2
 20
852.85
 10
1864.8
 20
853.5500000000001
 10
1860.1
 20
855.95
 10
1856.5
 20
859.5500000000001
 10
1854.1
 20
864.25
 10
1853.3
 20
869.35
 10
1854.1
 20
874.45
 10
1856.5
 20
879.15
 10
1860.1
 20
882.75
 10
1864.8
 20
885.15
 10
1869.2
 20
885.85
 10
1878.5
 20
885.85
 10
1901.0
 20
921.0500000000001
 10
1901.0
 20
930.25
 10
1901.7
 20
934.65
 10
1904.1
 20
939.35
 10
1907.7
 20
942.95
 10
1912.4
 20
945.35
 10
1917.5
 20
946.15
 10
1922.6
 20
945.35
 10
1927.3
 20
942.95
 10
1930.9
 20
939.35
 10
1933.3
 20
934.65
  0
LWPOLYLINE
  5
74
330
1F
100
AcDbEntity
  8
text2
100
AcDbPolyline
 90
        4
 70
     1
 43
0.0
 10
259.05
 20
1439.0
 10
259.05
 20
1534.0
 10
354.05
 20
1534.0
 10
354.05
 20
1439.0
  0
LWPOLYLINE
  5
75
330
1F
100
AcDbEntity
  8
text2
100
AcDbPolyline
 90
        4
 70
     1
 43
0.0
 10
409.05
 20
1439.0
 10
409.05
 20
1534.0
 10
504.05
 20
1534.0
 10
504.05
 20
1439.0
  0
LWPOLYLINE
  5
76
330
1F
100
AcDbEntity
  8
text2
100
AcDbPolyline
 90
        4
 70
     1
 43
0.0
 10
559.0500000000001
 20
1439.0
 10
559.0500000000001
 20
1534.0
 10
654.0500000000001
 20
1534.0
 10
654.0500000000001
 20
1439.0
  0
LWPOLYLINE
  5
77
330
1F
100
AcDbEntity
  8
text2
100
AcDbPolyline
 90
        4
 70
     1
 43
0.0
 10
709.0500000000001
 20
1439.0
 10
709.0500000000001
 20
1534.0
 10
804.0500000000001
 20
1534.0
 10
804.0500000000001
 20
1439.0
  0
LWPOLYLINE
  5
78
330
1F
100
AcDbEntity
  8
text2
100
AcDbPolyline
 90
        4
 70
     1
 43
0.0
 10
859.0500000000001
 20
1439.0
 10
859.0500000000001
 20
1534.0
 10
954.0500000000001
 20
1534.0
 10
954.0500000000001
 20
1439.0
  0
LWPOLYLINE
  5
79
330
1F
100
AcDbEntity
  8
text2
100
AcDbPolyline
 90
        7
 70
     1
 43
0.0
 10
1418.645
 20
96.63
 10
1436.505
 20
96.63
 10
1440.075
 20
100.2
 10
1440.075
 20
128.77
 10
1436.505
 20
132.34
 10
1418.645
 20
132.34
 10
1418.645
 20
96.63
  0
LWPOLYLINE
  5
7A
330
1F
100
AcDbEntity
  8
text2
100
AcDbPolyline
 90
        7
 70
     1
 43
0.0
 10
1411.505
 20
89.485
 10
1411.505
 20
139.485
 10
1440.075
 20
139.485
 10
1447.215
 20
132.34
 10
1447.215
 20
96.63
 10
1440.075
 20
89.485
 10
1411.505
 20
89.485
  0
LWPOLYLINE
  5
7B
330
1F
100
AcDbEntity
  8
text2
100
AcDbPolyline
 90
       13
 70
     1
 43
0.0
 10
1361.505
 20
89.485
 10
1361.505
 20
139.485
 10
1368.645
 20
139.485
 10
1379.36
 20
128.77
 10
1390.075
 20
139.485
 10
1397.215
 20
139.485
 10
1397.215
 20
89.485
 10
1390.075
 20
89.485
 10
1390.075
 20
128.77
 10
1379.36
 20
118.055
 10
1368.645
 20
128.77
 10
1368.645
 20
89.485
 10
1361.505
 20
89.485
  0
LWPOLYLINE
  5
7C
330
1F
100
AcDbEntity
  8
text2
100
AcDbPolyline
 90
       11
 70
     1
 43
0.0
 10
1914.358
 20
555.769
 10
1914.358
 20
560.056
 10
1918.645
 20
560.056
 10
1918.645
 20
581.482
 10
1914.358
 20
581.482
 10
1918.645
 20
585.769
 10
1922.929
 20
585.769
 10
1922.929
 20
560.056
 10
1927.216
 20
560.056
 10
1927.216
 20
555.769
 10
1914.358
 20
555.769
  0
LWPOLYLINE
  5
7D
330
1F
100
AcDbEntity
  8
text2
100
AcDbPolyline
 90
       13
 70
     1
 43
0.0
 10
1461.505
 20
89.485
 10
1461.505
 20
139.485
 10
1490.075
 20
139.485
 10
1497.215
 20
132.34
 10
1497.215
 20
118.055
 10
1490.075
 20
110.915
 10
1479.36
 20
110.915
 10
1497.215
 20
93.056
 10
1497.215
 20
89.485
 10
1490.075
 20
89.485
 10
1468.645
 20
110.915
 10
1468.645
 20
89.485
 10
1461.505
 20
89.485
  0
LWPOLYLINE
  5
7E
330
1F
100
AcDbEntity
  8
text2
100
AcDbPolyline
 90
        7
 70
     1
 43
0.0
 10
1468.645
 20
118.055
 10
1486.505
 20
118.055
 10
1490.075
 20
121.63
 10
1490.075
 20
128.77
 10
1486.505
 20
132.34
 10
1468.645
 20
132.34
 10
1468.645
 20
118.055
  0
LWPOLYLINE
  5
7F
330
1F
100
AcDbEntity
  8
text2
100
AcDbPolyline
 90
        9
 70
     1
 43
0.0
 10
1515.075
 20
96.63
 10
1515.075
 20
132.34
 10
1522.215
 20
139.485
 10
1536.505
 20
139.485
 10
1543.645
 20
132.34
 10
1543.645
 20
96.63
 10
1536.505
 20
89.485
 10
1522.215
 20
89.485
 10
1515.075
 20
96.63
  0
LWPOLYLINE
  5
80
330
1F
100
AcDbEntity
  8
text2
100
AcDbPolyline
 90
        9
 70
     1
 43
0.0
 10
1522.215
 20
100.2
 10
1522.215
 20
128.77
 10
1525.79
 20
132.34
 10
1532.93
 20
132.34
 10
1536.505
 20
128.77
 10
1536.505
 20
100.2
 10
1532.93
 20
96.63
 10
1525.79
 20
96.63
 10
1522.215
 20
100.2
  0
LWPOLYLINE
  5
81
330
1F
100
AcDbEntity
  8
text2
100
AcDbPolyline
 90
        9
 70
     1
 43
0.0
 10
1572.215
 20
100.2
 10
1572.215
 20
128.77
 10
1575.79
 20
132.34
 10
1582.93
 20
132.34
 10
1586.505
 20
128.77
 10
1586.505
 20
100.2
 10
1582.93
 20
96.63
 10
1575.79
 20
96.63
 10
1572.215
 20
100.2
  0
LWPOLYLINE
  5
82
330
1F
100
AcDbEntity
  8
text2
100
AcDbPolyline
 90
       17
 70
     1
 43
0.0
 10
1336.505
 20
85.914
 10
1332.93
 20
82.34
 10
1315.075
 20
82.34
 10
1315.075
 20
75.2
 10
1336.505
 20
75.2
 10
1343.645
 20
82.34
 10
1343.645
 20
118.055
 10
1336.505
 20
118.055
 10
1336.505
 20
114.485
 10
1332.93
 20
118.055
 10
1322.215
 20
118.055
 10
1315.075
 20
110.915
 10
1315.075
 20
96.63
 10
1322.215
 20
89.485
 10
1332.93
 20
89.485
 10
1336.505
 20
93.056
 10
1336.505
 20
85.914
  0
LWPOLYLINE
  5
83
330
1F
100
AcDbEntity
  8
text2
100
AcDbPolyline
 90
        9
 70
     1
 43
0.0
 10
1332.93
 20
100.2
 10
1332.93
 20
107.34
 10
1329.36
 20
110.915
 10
1325.79
 20
110.915
 10
1322.215
 20
107.34
 10
1322.215
 20
100.2
 10
1325.79
 20
96.63
 10
1329.36
 20
96.63
 10
1332.93
 20
100.2
  0
LWPOLYLINE
  5
84
330
1F
100
AcDbEntity
  8
text2
100
AcDbPolyline
 90
       64
 70
     1
 43
0.0
 10
1903.7
 20
159.425
 10
1904.1
 20
156.225
 10
1904.1
 20
150.625
 10
1902.1
 20
144.225
 10
1898.9
 20
138.225
 10
1894.5
 20
132.625
 10
1888.9
 20
127.425
 10
1882.1
 20
122.225
 10
1874.1
 20
118.225
 10
1865.3
 20
114.225
 10
1855.7
 20
111.025
 10
1845.3
 20
108.625
 10
1834.5
 20
107.025
 10
1822.9
 20
105.825
 10
1812.9
 20
105.825
 10
1793.7
 20
107.025
 10
1775.7
 20
110.625
 10
1770.1
 20
112.225
 10
1764.9
 20
113.825
 10
1759.7
 20
115.825
 10
1754.9
 20
117.825
 10
1746.1
 20
122.225
 10
1750.1
 20
120.625
 10
1753.7
 20
119.025
 10
1757.7
 20
117.425
 10
1762.1
 20
115.825
 10
1766.1
 20
114.625
 10
1770.5
 20
113.825
 10
1775.3
 20
112.625
 10
1779.7
 20
111.825
 10
1784.5
 20
111.425
 10
1794.9
 20
110.625
 10
1810.1
 20
110.625
 10
1821.7
 20
111.825
 10
1832.5
 20
113.425
 10
1842.9
 20
115.825
 10
1852.5
 20
119.025
 10
1861.3
 20
123.025
 10
1869.3
 20
127.025
 10
1876.1
 20
131.825
 10
1881.7
 20
137.425
 10
1886.1
 20
143.025
 10
1889.3
 20
149.025
 10
1891.3
 20
155.425
 10
1891.7
 20
160.625
 10
1891.3
 20
163.825
 10
1890.5
 20
169.425
 10
1889.7
 20
172.225
 10
1888.5
 20
175.025
 10
1886.9
 20
177.825
 10
1885.3
 20
180.225
 10
1881.3
 20
185.025
 10
1878.5
 20
187.425
 10
1875.7
 20
189.425
 10
1872.5
 20
191.825
 10
1876.5
 20
189.425
 10
1880.9
 20
187.025
 10
1884.5
 20
184.625
 10
1891.7
 20
179.025
 10
1897.3
 20
172.625
 10
1899.7
 20
169.825
 10
1901.3
 20
166.225
 10
1902.9
 20
163.025
 10
1903.7
 20
159.425
  0
LWPOLYLINE
  5
85
330
1F
100
AcDbEntity
  8
text2
100
AcDbPolyline
 90
        8
 70
     1
 43
0.0
 10
1668.645
 20
89.485
 10
1690.075
 20
132.34
 10
1661.505
 20
132.34
 10
1661.505
 20
139.485
 10
1697.215
 20
139.485
 10
1697.215
 20
132.34
 10
1675.79
 20
89.485
 10
1668.645
 20
89.485
  0
LWPOLYLINE
  5
86
330
1F
100
AcDbEntity
  8
text2
100
AcDbPolyline
 90
       16
 70
     1
 43
0.0
 10
1611.505
 20
89.485
 10
1611.505
 20
100.2
 10
1640.075
 20
121.63
 10
1640.075
 20
128.77
 10
1636.505
 20
132.34
 10
1622.215
 20
132.34
 10
1618.645
 20
128.77
 10
1611.505
 20
132.34
 10
1618.645
 20
139.485
 10
1640.075
 20
139.485
 10
1647.215
 20
132.34
 10
1647.215
 20
118.055
 10
1618.645
 20
96.63
 10
1647.215
 20
96.63
 10
1647.215
 20
89.485
 10
1611.505
 20
89.485
  0
LWPOLYLINE
  5
87
330
1F
100
AcDbEntity
  8
text2
100
AcDbPolyline
 90
       11
 70
     1
 43
0.0
 10
1914.358
 20
555.769
 10
1914.358
 20
560.056
 10
1918.645
 20
560.056
 10
1918.645
 20
581.482
 10
1914.358
 20
581.482
 10
1918.645
 20
585.769
 10
1922.929
 20
585.769
 10
1922.929
 20
560.056
 10
1927.216
 20
560.056
 10
1927.216
 20
555.769
 10
1914.358
 20
555.769
  0
LWPOLYLINE
  5
88
330
1F
100
AcDbEntity
  8
text2
100
AcDbPolyline
 90
       10
 70
     1
 43
0.0
 10
1832.645
 20
245.625
 10
1832.645
 20
295.625
 10
1861.215
 20
295.625
 10
1868.355
 20
288.48
 10
1868.355
 20
277.77
 10
1861.215
 20
270.625
 10
1868.355
 20
263.48
 10
1868.355
 20
252.77
 10
1861.215
 20
245.625
 10
1832.645
 20
245.625
  0
LWPOLYLINE
  5
89
330
1F
100
AcDbEntity
  8
text2
100
AcDbPolyline
 90
        7
 70
     1
 43
0.0
 10
1839.785
 20
252.77
 10
1857.645
 20
252.77
 10
1861.215
 20
256.34
 10
1861.215
 20
259.91
 10
1854.07
 20
267.055
 10
1839.785
 20
267.055
 10
1839.785
 20
252.77
  0
LWPOLYLINE
  5
8A
330
1F
100
AcDbEntity
  8
text2
100
AcDbPolyline
 90
        7
 70
     1
 43
0.0
 10
1839.785
 20
274.195
 10
1854.07
 20
274.195
 10
1861.215
 20
281.34
 10
1861.215
 20
284.91
 10
1857.645
 20
288.48
 10
1839.785
 20
288.48
 10
1839.785
 20
274.195
  0
LWPOLYLINE
  5
8B
330
1F
100
AcDbEntity
  8
text2
100
AcDbPolyline
 90
       17
 70
     1
 43
0.0
 10
1336.505
 20
85.914
 10
1332.93
 20
82.34
 10
1315.075
 20
82.34
 10
1315.075
 20
75.2
 10
1336.505
 20
75.2
 10
1343.645
 20
82.34
 10
1343.645
 20
118.055
 10
1336.505
 20
118.055
 10
1336.505
 20
114.485
 10
1332.93
 20
118.055
 10
1322.215
 20
118.055
 10
1315.075
 20
110.915
 10
1315.075
 20
96.63
 10
1322.215
 20
89.485
 10
1332.93
 20
89.485
 10
1336.505
 20
93.056
 10
1336.505
 20
85.914
  0
LWPOLYLINE
  5
8C
330
1F
100
AcDbEntity
  8
text2
100
AcDbPolyline
 90
        9
 70
     1
 43
0.0
 10
1332.93
 20
100.2
 10
1332.93
 20
107.34
 10
1329.36
 20
110.915
 10
1325.79
 20
110.915
 10
1322.215
 20
107.34
 10
1322.215
 20
100.2
 10
1325.79
 20
96.63
 10
1329.36
 20
96.63
 10
1332.93
 20
100.2
  0
LWPOLYLINE
  5
8D
330
1F
100
AcDbEntity
  8
text2
100
AcDbPolyline
 90
       13
 70
     1
 43
0.0
 10
1361.505
 20
89.485
 10
1361.505
 20
139.485
 10
1368.645
 20
139.485
 10
1379.36
 20
128.77
 10
1390.075
 20
139.485
 10
1397.215
 20
139.485
 10
1397.215
 20
89.485
 10
1390.075
 20
89.485
 10
1390.075
 20
128.77
 10
1379.36
 20
118.055
 10
1368.645
 20
128.77
 10
1368.645
 20
89.485
 10
1361.505
 20
89.485
  0
LWPOLYLINE
  5
8E
330
1F
100
AcDbEntity
  8
text2
100
AcDbPolyline
 90
        7
 70
     1
 43
0.0
 10
1411.505
 20
89.485
 10
1411.505
 20
139.485
 10
1440.075
 20
139.485
 10
1447.215
 20
132.34
 10
1447.215
 20
96.63
 10
1440.075
 20
89.485
 10
1411.505
 20
89.485
  0
LWPOLYLINE
  5
8F
330
1F
100
AcDbEntity
  8
text2
100
AcDbPolyline
 90
        7
 70
     1
 43
0.0
 10
1418.645
 20
96.63
 10
1436.505
 20
96.63
 10
1440.075
 20
100.2
 10
1440.075
 20
128.77
 10
1436.505
 20
132.34
 10
1418.645
 20
132.34
 10
1418.645
 20
96.63
  0
LWPOLYLINE
  5
90
330
1F
100
AcDbEntity
  8
text2
100
AcDbPolyline
 90
       13
 70
     1
 43
0.0
 10
1461.505
 20
89.485
 10
1461.505
 20
139.485
 10
1490.075
 20
139.485
 10
1497.215
 20
132.34
 10
1497.215
 20
118.055
 10
1490.075
 20
110.915
 10
1479.36
 20
110.915
 10
1497.215
 20
93.056
 10
1497.215
 20
89.485
 10
1490.075
 20
89.485
 10
1468.645
 20
110.915
 10
1468.645
 20
89.485
 10
1461.505
 20
89.485
  0
LWPOLYLINE
  5
91
330
1F
100
AcDbEntity
  8
text2
100
AcDbPolyline
 90
        7
 70
     1
 43
0.0
 10
1468.645
 20
118.055
 10
1486.505
 20
118.055
 10
1490.075
 20
121.63
 10
1490.075
 20
128.77
 10
1486.505
 20
132.34
 10
1468.645
 20
132.34
 10
1468.645
 20
118.055
  0
LWPOLYLINE
  5
92
330
1F
100
AcDbEntity
  8
text2
100
AcDbPolyline
 90
        9
 70
     1
 43
0.0
 10
1515.075
 20
96.63
 10
1515.075
 20
132.34
 10
1522.215
 20
139.485
 10
1536.505
 20
139.485
 10
1543.645
 20
132.34
 10
1543.645
 20
96.63
 10
1536.505
 20
89.485
 10
1522.215
 20
89.485
 10
1515.075
 20
96.63
  0
LWPOLYLINE
  5
93
330
1F
100
AcDbEntity
  8
text2
100
AcDbPolyline
 90
        9
 70
     1
 43
0.0
 10
1522.215
 20
100.2
 10
1522.215
 20
128.77
 10
1525.79
 20
132.34
 10
1532.93
 20
132.34
 10
1536.505
 20
128.77
 10
1536.505
 20
100.2
 10
1532.93
 20
96.63
 10
1525.79
 20
96.63
 10
1522.215
 20
100.2
  0
LWPOLYLINE
  5
94
330
1F
100
AcDbEntity
  8
text2
100
AcDbPolyline
 90
        9
 70
     1
 43
0.0
 10
1565.075
 20
96.63
 10
1565.075
 20
132.34
 10
1572.215
 20
139.485
 10
1586.505
 20
139.485
 10
1593.645
 20
132.34
 10
1593.645
 20
96.63
 10
1586.505
 20
89.485
 10
1572.215
 20
89.485
 10
1565.075
 20
96.63
  0
LWPOLYLINE
  5
95
330
1F
100
AcDbEntity
  8
text2
100
AcDbPolyline
 90
        9
 70
     1
 43
0.0
 10
1572.215
 20
100.2
 10
1572.215
 20
128.77
 10
1575.79
 20
132.34
 10
1582.93
 20
132.34
 10
1586.505
 20
128.77
 10
1586.505
 20
100.2
 10
1582.93
 20
96.63
 10
1575.79
 20
96.63
 10
1572.215
 20
100.2
  0
LWPOLYLINE
  5
96
330
1F
100
AcDbEntity
  8
text2
100
AcDbPolyline
 90
       16
 70
     1
 43
0.0
 10
1611.505
 20
89.485
 10
1611.505
 20
100.2
 10
1640.075
 20
121.63
 10
1640.075
 20
128.77
 10
1636.505
 20
132.34
 10
1622.215
 20
132.34
 10
1618.645
 20
128.77
 10
1611.505
 20
132.34
 10
1618.645
 20
139.485
 10
1640.075
 20
139.485
 10
1647.215
 20
132.34
 10
1647.215
 20
118.055
 10
1618.645
 20
96.63
 10
1647.215
 20
96.63
 10
1647.215
 20
89.485
 10
1611.505
 20
89.485
  0
LWPOLYLINE
  5
97
330
1F
100
AcDbEntity
  8
text2
100
AcDbPolyline
 90
        8
 70
     1
 43
0.0
 10
1668.645
 20
89.485
 10
1690.075
 20
132.34
 10
1661.505
 20
132.34
 10
1661.505
 20
139.485
 10
1697.215
 20
139.485
 10
1697.215
 20
132.34
 10
1675.79
 20
89.485
 10
1668.645
 20
89.485
  0
LWPOLYLINE
  5
98
330
1F
100
AcDbEntity
  8
text2
100
AcDbPolyline
 90
       64
 70
     1
 43
0.0
 10
1903.7
 20
159.425
 10
1904.1
 20
156.225
 10
1904.1
 20
150.625
 10
1902.1
 20
144.225
 10
1898.9
 20
138.225
 10
1894.5
 20
132.625
 10
1888.9
 20
127.425
 10
1882.1
 20
122.225
 10
1874.1
 20
118.225
 10
1865.3
 20
114.225
 10
1855.7
 20
111.025
 10
1845.3
 20
108.625
 10
1834.5
 20
107.025
 10
1822.9
 20
105.825
 10
1812.9
 20
105.825
 10
1793.7
 20
107.025
 10
1775.7
 20
110.625
 10
1770.1
 20
112.225
 10
1764.9
 20
113.825
 10
1759.7
 20
115.825
 10
1754.9
 20
117.825
 10
1746.1
 20
122.225
 10
1750.1
 20
120.625
 10
1753.7
 20
119.025
 10
1757.7
 20
117.425
 10
1762.1
 20
115.825
 10
1766.1
 20
114.625
 10
1770.5
 20
113.825
 10
1775.3
 20
112.625
 10
1779.7
 20
111.825
 10
1784.5
 20
111.425
 10
1794.9
 20
110.625
 10
1810.1
 20
110.625
 10
1821.7
 20
111.825
 10
1832.5
 20
113.425
 10
1842.9
 20
115.825
 10
1852.5
 20
119.025
 10
1861.3
 20
123.025
 10
1869.3
 20
127.025
 10
1876.1
 20
131.825
 10
1881.7
 20
137.425
 10
1886.1
 20
143.025
 10
1889.3
 20
149.025
 10
1891.3
 20
155.425
 10
1891.7
 20
160.625
 10
1891.3
 20
163.825
 10
1890.5
 20
169.425
 10
1889.7
 20
172.225
 10
1888.5
 20
175.025
 10
1886.9
 20
177.825
 10
1885.3
 20
180.225
 10
1881.3
 20
185.025
 10
1878.5
 20
187.425
 10
1875.7
 20
189.425
 10
1872.5
 20
191.825
 10
1876.5
 20
189.425
 10
1880.9
 20
187.025
 10
1884.5
 20
184.625
 10
1891.7
 20
179.025
 10
1897.3
 20
172.625
 10
1899.7
 20
169.825
 10
1901.3
 20
166.225
 10
1902.9
 20
163.025
 10
1903.7
 20
159.425
  0
LWPOLYLINE
  5
99
330
1F
100
AcDbEntity
  8
text2
100
AcDbPolyline
 90
       51
 70
     1
 43
0.0
 10
1802.3
 20
128.025
 10
1800.5
 20
128.225
 10
1797.3
 20
128.625
 10
1790.9
 20
129.825
 10
1783.7
 20
131.425
 10
1776.9
 20
133.825
 10
1770.5
 20
136.625
 10
1764.9
 20
139.825
 10
1759.7
 20
143.425
 10
1754.9
 20
147.025
 10
1751.3
 20
151.025
 10
1748.1
 20
155.425
 10
1745.7
 20
159.425
 10
1744.5
 20
164.225
 10
1744.1
 20
168.625
 10
1744.5
 20
172.225
 10
1745.3
 20
176.225
 10
1746.1
 20
178.225
 10
1746.9
 20
179.825
 10
1750.5
 20
184.625
 10
1752.1
 20
185.825
 10
1754.1
 20
187.025
 10
1755.7
 20
188.225
 10
1760.5
 20
190.625
 10
1757.3
 20
189.425
 10
1751.7
 20
187.025
 10
1748.9
 20
185.425
 10
1746.5
 20
183.425
 10
1744.1
 20
181.825
 10
1740.1
 20
177.825
 10
1738.5
 20
175.825
 10
1737.3
 20
173.425
 10
1736.5
 20
171.425
 10
1735.7
 20
169.025
 10
1735.3
 20
165.025
 10
1735.7
 20
160.625
 10
1737.3
 20
156.225
 10
1739.3
 20
151.825
 10
1742.5
 20
147.425
 10
1746.1
 20
143.425
 10
1750.9
 20
139.825
 10
1756.1
 20
136.225
 10
1761.7
 20
133.025
 10
1768.1
 20
130.625
 10
1774.9
 20
128.225
 10
1782.1
 20
126.225
 10
1788.5
 20
125.025
 10
1792.9
 20
124.625
 10
1796.9
 20
124.225
 10
1802.3
 20
124.225
 10
1802.3
 20
128.025
  0
LWPOLYLINE
  5
9A
330
1F
100
AcDbEntity
  8
text2
100
AcDbPolyline
 90
       95
 70
     1
 43
0.0
 10
1802.3
 20
189.225
 10
1800.1
 20
191.425
 10
1798.9
 20
192.225
 10
1797.3
 20
193.425
 10
1795.3
 20
194.225
 10
1793.7
 20
195.025
 10
1792.1
 20
195.425
 10
1788.1
 20
196.225
 10
1780.1
 20
196.225
 10
1776.1
 20
195.425
 10
1773.7
 20
194.625
 10
1774.1
 20
194.625
 10
1775.7
 20
195.025
 10
1777.7
 20
195.025
 10
1779.3
 20
195.425
 10
1780.9
 20
195.425
 10
1782.5
 20
195.025
 10
1784.1
 20
195.025
 10
1785.7
 20
194.625
 10
1786.9
 20
194.225
 10
1788.5
 20
193.425
 10
1789.7
 20
193.025
 10
1791.3
 20
192.225
 10
1793.7
 20
190.625
 10
1797.3
 20
187.025
 10
1798.9
 20
184.625
 10
1799.7
 20
183.025
 10
1800.5
 20
181.825
 10
1801.3
 20
180.225
 10
1801.3
 20
179.025
 10
1794.1
 20
178.225
 10
1790.9
 20
177.425
 10
1787.3
 20
176.625
 10
1784.1
 20
175.825
 10
1780.9
 20
174.625
 10
1777.7
 20
173.825
 10
1774.9
 20
172.625
 10
1772.1
 20
171.025
 10
1769.3
 20
169.825
 10
1766.9
 20
168.225
 10
1768.9
 20
169.025
 10
1771.3
 20
170.225
 10
1773.7
 20
171.025
 10
1775.7
 20
171.825
 10
1778.1
 20
172.225
 10
1780.9
 20
173.025
 10
1783.3
 20
173.425
 10
1788.9
 20
174.225
 10
1791.7
 20
174.225
 10
1794.5
 20
174.625
 10
1800.1
 20
175.025
 10
1802.1
 20
175.025
 10
1801.7
 20
174.225
 10
1800.5
 20
169.025
 10
1800.1
 20
163.825
 10
1800.1
 20
158.225
 10
1800.5
 20
155.025
 10
1798.1
 20
156.225
 10
1796.1
 20
156.625
 10
1794.5
 20
157.425
 10
1792.5
 20
157.425
 10
1790.9
 20
157.825
 10
1788.9
 20
157.825
 10
1786.9
 20
157.425
 10
1785.3
 20
157.425
 10
1783.3
 20
156.625
 10
1781.7
 20
156.225
 10
1779.7
 20
155.425
 10
1778.1
 20
154.625
 10
1776.1
 20
153.425
 10
1774.5
 20
152.625
 10
1772.5
 20
151.425
 10
1769.7
 20
148.625
 10
1770.9
 20
149.425
 10
1772.5
 20
150.625
 10
1774.1
 20
151.425
 10
1775.3
 20
152.225
 10
1778.5
 20
153.025
 10
1779.7
 20
153.425
 10
1781.3
 20
153.825
 10
1782.9
 20
153.825
 10
1784.5
 20
154.225
 10
1786.1
 20
153.825
 10
1787.3
 20
153.825
 10
1788.9
 20
153.425
 10
1790.5
 20
153.425
 10
1792.1
 20
153.025
 10
1793.3
 20
152.625
 10
1795.7
 20
151.025
 10
1796.9
 20
150.625
 10
1798.1
 20
149.425
 10
1800.5
 20
147.825
 10
1801.3
 20
146.625
 10
1802.3
 20
145.625
 10
1802.3
 20
189.225
  0
LWPOLYLINE
  5
9B
330
1F
100
AcDbEntity
  8
text2
100
AcDbPolyline
 90
      142
 70
     1
 43
0.0
 10
1869.3
 20
184.225
 10
1867.3
 20
184.625
 10
1856.1
 20
184.625
 10
1851.3
 20
183.825
 10
1848.5
 20
183.025
 10
1846.1
 20
182.625
 10
1843.7
 20
181.825
 10
1841.3
 20
180.625
 10
1838.9
 20
179.825
 10
1836.9
 20
178.625
 10
1834.1
 20
177.025
 10
1831.7
 20
175.425
 10
1830.1
 20
175.825
 10
1824.9
 20
177.425
 10
1818.9
 20
178.625
 10
1813.3
 20
179.025
 10
1813.7
 20
181.025
 10
1817.7
 20
189.825
 10
1820.1
 20
193.025
 10
1823.7
 20
196.625
 10
1825.3
 20
197.825
 10
1826.5
 20
198.625
 10
1828.1
 20
199.825
 10
1829.7
 20
200.625
 10
1833.7
 20
202.225
 10
1835.7
 20
202.625
 10
1837.7
 20
203.425
 10
1839.7
 20
203.425
 10
1842.1
 20
203.825
 10
1844.5
 20
203.825
 10
1841.7
 20
204.225
 10
1834.1
 20
204.225
 10
1831.7
 20
203.825
 10
1824.5
 20
201.425
 10
1819.7
 20
199.025
 10
1817.3
 20
197.425
 10
1815.3
 20
195.825
 10
1811.7
 20
192.625
 10
1808.5
 20
188.225
 10
1806.1
 20
184.625
 10
1805.3
 20
185.425
 10
1804.5
 20
187.025
 10
1802.3
 20
189.225
 10
1802.3
 20
145.625
 10
1802.5
 20
145.425
 10
1803.3
 20
144.225
 10
1803.7
 20
143.825
 10
1804.1
 20
142.625
 10
1806.5
 20
137.825
 10
1809.3
 20
134.225
 10
1810.9
 20
131.825
 10
1814.9
 20
127.825
 10
1815.7
 20
127.425
 10
1807.3
 20
127.425
 10
1804.1
 20
127.825
 10
1802.3
 20
128.025
 10
1802.3
 20
124.225
 10
1804.9
 20
124.225
 10
1816.9
 20
125.425
 10
1817.7
 20
125.825
 10
1819.3
 20
124.625
 10
1821.3
 20
123.025
 10
1823.7
 20
122.225
 10
1826.1
 20
121.025
 10
1830.9
 20
119.425
 10
1833.7
 20
119.025
 10
1836.1
 20
119.025
 10
1832.1
 20
119.825
 10
1828.1
 20
121.425
 10
1826.5
 20
122.225
 10
1824.9
 20
123.425
 10
1822.5
 20
125.825
 10
1822.1
 20
126.625
 10
1824.1
 20
127.025
 10
1827.3
 20
128.225
 10
1830.5
 20
129.025
 10
1833.3
 20
130.225
 10
1830.9
 20
129.425
 10
1828.1
 20
128.625
 10
1822.5
 20
127.825
 10
1821.7
 20
127.825
 10
1821.3
 20
128.225
 10
1820.1
 20
131.425
 10
1819.7
 20
134.625
 10
1819.3
 20
138.225
 10
1819.7
 20
142.225
 10
1820.5
 20
146.225
 10
1821.7
 20
150.225
 10
1823.3
 20
154.225
 10
1825.3
 20
158.225
 10
1827.7
 20
162.225
 10
1830.1
 20
165.825
 10
1832.1
 20
168.225
 10
1832.9
 20
167.425
 10
1836.9
 20
165.025
 10
1840.1
 20
162.225
 10
1842.9
 20
159.025
 10
1844.9
 20
155.825
 10
1846.1
 20
152.225
 10
1846.5
 20
149.425
 10
1846.5
 20
147.825
 10
1846.1
 20
145.825
 10
1846.1
 20
144.225
 10
1845.7
 20
143.025
 10
1844.1
 20
139.825
 10
1843.3
 20
138.625
 10
1842.5
 20
137.025
 10
1841.3
 20
135.825
 10
1839.7
 20
134.625
 10
1838.1
 20
133.025
 10
1836.5
 20
131.825
 10
1838.9
 20
133.425
 10
1840.9
 20
134.625
 10
1842.9
 20
136.625
 10
1844.9
 20
138.225
 10
1846.5
 20
139.825
 10
1849.7
 20
143.825
 10
1850.9
 20
145.425
 10
1852.5
 20
149.425
 10
1852.9
 20
151.425
 10
1852.9
 20
153.425
 10
1852.5
 20
156.625
 10
1851.3
 20
160.225
 10
1849.3
 20
163.425
 10
1846.9
 20
166.625
 10
1843.3
 20
169.425
 10
1839.7
 20
171.825
 10
1837.3
 20
173.025
 10
1840.5
 20
175.425
 10
1842.9
 20
177.025
 10
1844.9
 20
178.225
 10
1846.9
 20
179.025
 10
1848.9
 20
180.225
 10
1850.5
 20
181.025
 10
1852.5
 20
181.425
 10
1854.5
 20
182.225
 10
1856.5
 20
182.625
 10
1858.5
 20
183.425
 10
1860.1
 20
183.825
 10
1862.1
 20
183.825
 10
1864.1
 20
184.225
 10
1869.3
 20
184.225
  0
LWPOLYLINE
  5
9C
330
1F
100
AcDbEntity
  8
text2
100
AcDbPolyline
 90
       10
 70
     1
 43
0.0
 10
1832.645
 20
245.625
 10
1832.645
 20
295.625
 10
1861.215
 20
295.625
 10
1868.355
 20
288.48
 10
1868.355
 20
277.77
 10
1861.215
 20
270.625
 10
1868.355
 20
263.48
 10
1868.355
 20
252.77
 10
1861.215
 20
245.625
 10
1832.645
 20
245.625
  0
LWPOLYLINE
  5
9D
330
1F
100
AcDbEntity
  8
text2
100
AcDbPolyline
 90
        7
 70
     1
 43
0.0
 10
1839.785
 20
252.77
 10
1857.645
 20
252.77
 10
1861.215
 20
256.34
 10
1861.215
 20
259.91
 10
1854.07
 20
267.055
 10
1839.785
 20
267.055
 10
1839.785
 20
252.77
  0
LWPOLYLINE
  5
9E
330
1F
100
AcDbEntity
  8
text2
100
AcDbPolyline
 90
        7
 70
     1
 43
0.0
 10
1839.785
 20
274.195
 10
1854.07
 20
274.195
 10
1861.215
 20
281.34
 10
1861.215
 20
284.91
 10
1857.645
 20
288.48
 10
1839.785
 20
288.48
 10
1839.785
 20
274.195
  0
LWPOLYLINE
  5
9F
330
1F
100
AcDbEntity
  8
text2
100
AcDbPolyline
 90
       16
 70
     1
 43
0.0
 10
1890.075
 20
957.767
 10
1890.075
 20
968.482
 10
1918.645
 20
989.912
 10
1918.645
 20
997.052
 10
1915.075
 20
1000.622
 10
1900.785
 20
1000.622
 10
1897.215
 20
997.052
 10
1890.075
 20
1000.622
 10
1897.215
 20
1007.767
 10
1918.645
 20
1007.767
 10
1925.785
 20
1000.622
 10
1925.785
 20
986.337
 10
1897.215
 20
964.912
 10
1925.785
 20
964.912
 10
1925.785
 20
957.767
 10
1890.075
 20
957.767
  0
LWPOLYLINE
  5
A0
330
1F
100
AcDbEntity
  8
text2
100
AcDbPolyline
 90
        7
 70
     1
 43
0.0
 10
1847.215
 20
986.337
 10
1865.075
 20
986.337
 10
1868.645
 20
989.912
 10
1868.645
 20
997.052
 10
1865.075
 20
1000.622
 10
1847.215
 20
1000.622
 10
1847.215
 20
986.337
  0
LWPOLYLINE
  5
A1
330
1F
100
AcDbEntity
  8
text2
100
AcDbPolyline
 90
        9
 70
     1
 43
0.0
 10
1840.075
 20
957.767
 10
1840.075
 20
1007.767
 10
1868.645
 20
1007.767
 10
1875.785
 20
1000.622
 10
1875.785
 20
986.337
 10
1868.645
 20
979.197
 10
1847.215
 20
979.197
 10
1847.215
 20
957.767
 10
1840.075
 20
957.767
  0
LWPOLYLINE
  5
A2
330
1F
100
AcDbEntity
  8
text2
100
AcDbPolyline
 90
       11
 70
     1
 43
0.0
 10
976.929
 20
1497.481
 10
976.929
 20
1501.768
 10
981.216
 20
1501.768
 10
981.216
 20
1523.194
 10
976.929
 20
1523.194
 10
981.216
 20
1527.481
 10
985.5
 20
1527.481
 10
985.5
 20
1501.768
 10
989.787
 20
1501.768
 10
989.787
 20
1497.481
 10
976.929
 20
1497.481
  0
LWPOLYLINE
  5
A3
330
1F
100
AcDbEntity
  8
text2
100
AcDbPolyline
 90
       11
 70
     1
 43
0.0
 10
976.929
 20
1497.481
 10
976.929
 20
1501.768
 10
981.216
 20
1501.768
 10
981.216
 20
1523.194
 10
976.929
 20
1523.194
 10
981.216
 20
1527.481
 10
985.5
 20
1527.481
 10
985.5
 20
1501.768
 10
989.787
 20
1501.768
 10
989.787
 20
1497.481
 10
976.929
 20
1497.481
  0
LWPOLYLINE
  5
A4
330
1F
100
AcDbEntity
  8
text2
100
AcDbPolyline
 90
       11
 70
     1
 43
0.0
 10
199.425
 20
1446.625
 10
199.425
 20
1453.77
 10
206.57
 20
1453.77
 10
206.57
 20
1489.48
 10
199.425
 20
1489.48
 10
206.57
 20
1496.625
 10
213.71
 20
1496.625
 10
213.71
 20
1453.77
 10
220.855
 20
1453.77
 10
220.855
 20
1446.625
 10
199.425
 20
1446.625
  0
LWPOLYLINE
  5
A5
330
1F
100
AcDbEntity
  8
text2
100
AcDbPolyline
 90
        7
 70
     1
 43
0.0
 10
149.425
 20
1475.195
 10
167.285
 20
1475.195
 10
170.855
 20
1478.77
 10
170.855
 20
1485.91
 10
167.285
 20
1489.48
 10
149.425
 20
1489.48
 10
149.425
 20
1475.195
  0
LWPOLYLINE
  5
A6
330
1F
100
AcDbEntity
  8
text2
100
AcDbPolyline
 90
        9
 70
     1
 43
0.0
 10
142.285
 20
1446.625
 10
142.285
 20
1496.625
 10
170.855
 20
1496.625
 10
177.995
 20
1489.48
 10
177.995
 20
1475.195
 10
170.855
 20
1468.055
 10
149.425
 20
1468.055
 10
149.425
 20
1446.625
 10
142.285
 20
1446.625
  0
LWPOLYLINE
  5
A7
330
1F
100
AcDbEntity
  8
text2
100
AcDbPolyline
 90
        9
 70
     1
 43
0.0
 10
142.285
 20
1446.625
 10
142.285
 20
1496.625
 10
170.855
 20
1496.625
 10
177.995
 20
1489.48
 10
177.995
 20
1475.195
 10
170.855
 20
1468.055
 10
149.425
 20
1468.055
 10
149.425
 20
1446.625
 10
142.285
 20
1446.625
  0
LWPOLYLINE
  5
A8
330
1F
100
AcDbEntity
  8
text2
100
AcDbPolyline
 90
        7
 70
     1
 43
0.0
 10
149.425
 20
1475.195
 10
167.285
 20
1475.195
 10
170.855
 20
1478.77
 10
170.855
 20
1485.91
 10
167.285
 20
1489.48
 10
149.425
 20
1489.48
 10
149.425
 20
1475.195
  0
LWPOLYLINE
  5
A9
330
1F
100
AcDbEntity
  8
text2
100
AcDbPolyline
 90
       11
 70
     1
 43
0.0
 10
199.425
 20
1446.625
 10
199.425
 20
1453.77
 10
206.57
 20
1453.77
 10
206.57
 20
1489.48
 10
199.425
 20
1489.48
 10
206.57
 20
1496.625
 10
213.71
 20
1496.625
 10
213.71
 20
1453.77
 10
220.855
 20
1453.77
 10
220.855
 20
1446.625
 10
199.425
 20
1446.625
  0
LWPOLYLINE
  5
AA
330
1F
100
AcDbEntity
  8
text2
100
AcDbPolyline
 90
        4
 70
     1
 43
0.0
 10
140.785
 20
334.77
 10
126.5
 20
334.77
 10
140.785
 20
349.055
 10
140.785
 20
334.77
  0
LWPOLYLINE
  5
AB
330
1F
100
AcDbEntity
  8
text2
100
AcDbPolyline
 90
       12
 70
     1
 43
0.0
 10
140.785
 20
309.77
 10
140.785
 20
327.625
 10
119.36
 20
327.625
 10
119.36
 20
334.77
 10
140.785
 20
359.77
 10
147.93
 20
359.77
 10
147.93
 20
334.77
 10
155.07
 20
334.77
 10
155.07
 20
327.625
 10
147.93
 20
327.625
 10
147.93
 20
309.77
 10
140.785
 20
309.77
  0
LWPOLYLINE
  5
AC
330
1F
100
AcDbEntity
  8
text2
100
AcDbPolyline
 90
        9
 70
     1
 43
0.0
 10
69.36
 20
309.77
 10
69.36
 20
359.77
 10
97.93
 20
359.77
 10
105.07
 20
352.625
 10
105.07
 20
338.34
 10
97.93
 20
331.2
 10
76.5
 20
331.2
 10
76.5
 20
309.77
 10
69.36
 20
309.77
  0
LWPOLYLINE
  5
AD
330
1F
100
AcDbEntity
  8
text2
100
AcDbPolyline
 90
        7
 70
     1
 43
0.0
 10
76.5
 20
338.34
 10
94.36
 20
338.34
 10
97.93
 20
341.915
 10
97.93
 20
349.055
 10
94.36
 20
352.625
 10
76.5
 20
352.625
 10
76.5
 20
338.34
  0
LWPOLYLINE
  5
AE
330
1F
100
AcDbEntity
  8
text2
100
AcDbPolyline
 90
       12
 70
     1
 43
0.0
 10
140.785
 20
309.77
 10
140.785
 20
327.625
 10
119.36
 20
327.625
 10
119.36
 20
334.77
 10
140.785
 20
359.77
 10
147.93
 20
359.77
 10
147.93
 20
334.77
 10
155.07
 20
334.77
 10
155.07
 20
327.625
 10
147.93
 20
327.625
 10
147.93
 20
309.77
 10
140.785
 20
309.77
  0
LWPOLYLINE
  5
AF
330
1F
100
AcDbEntity
  8
text2
100
AcDbPolyline
 90
        4
 70
     1
 43
0.0
 10
140.785
 20
334.77
 10
126.5
 20
334.77
 10
140.785
 20
349.055
 10
140.785
 20
334.77
  0
LWPOLYLINE
  5
B0
330
1F
100
AcDbEntity
  8
text2
100
AcDbPolyline
 90
        9
 70
     1
 43
0.0
 10
69.36
 20
309.77
 10
69.36
 20
359.77
 10
97.93
 20
359.77
 10
105.07
 20
352.625
 10
105.07
 20
338.34
 10
97.93
 20
331.2
 10
76.5
 20
331.2
 10
76.5
 20
309.77
 10
69.36
 20
309.77
  0
LWPOLYLINE
  5
B1
330
1F
100
AcDbEntity
  8
text2
100
AcDbPolyline
 90
        7
 70
     1
 43
0.0
 10
76.5
 20
338.34
 10
94.36
 20
338.34
 10
97.93
 20
341.915
 10
97.93
 20
349.055
 10
94.36
 20
352.625
 10
76.5
 20
352.625
 10
76.5
 20
338.34
  0
LWPOLYLINE
  5
B2
330
1F
100
AcDbEntity
  8
text2
100
AcDbPolyline
 90
       11
 70
     1
 43
0.0
 10
69.143
 20
1221.34
 10
69.143
 20
1225.627
 10
73.43
 20
1225.627
 10
73.43
 20
1247.053
 10
69.143
 20
1247.053
 10
73.43
 20
1251.34
 10
77.714
 20
1251.34
 10
77.714
 20
1225.627
 10
82.001
 20
1225.627
 10
82.001
 20
1221.34
 10
69.143
 20
1221.34
  0
LWPOLYLINE
  5
B3
330
1F
100
AcDbEntity
  8
text2
100
AcDbPolyline
 90
       11
 70
     1
 43
0.0
 10
69.143
 20
1221.34
 10
69.143
 20
1225.627
 10
73.43
 20
1225.627
 10
73.43
 20
1247.053
 10
69.143
 20
1247.053
 10
73.43
 20
1251.34
 10
77.714
 20
1251.34
 10
77.714
 20
1225.627
 10
82.001
 20
1225.627
 10
82.001
 20
1221.34
 10
69.143
 20
1221.34
  0
LWPOLYLINE
  5
B4
330
1F
100
AcDbEntity
  8
text2
100
AcDbPolyline
 90
       26
 70
     1
 43
0.0
 10
822.645
 20
94.2
 10
829.785
 20
97.77
 10
833.355
 20
94.2
 10
847.645
 20
94.2
 10
851.215
 20
97.77
 10
851.215
 20
101.34
 10
844.07
 20
108.485
 10
836.9300000000001
 20
108.485
 10
836.9300000000001
 20
115.625
 10
844.07
 20
115.625
 10
851.215
 20
122.77
 10
851.215
 20
126.34
 10
847.645
 20
129.91
 10
833.355
 20
129.91
 10
829.785
 20
126.34
 10
822.645
 20
129.91
 10
829.785
 20
137.055
 10
851.215
 20
137.055
 10
858.355
 20
129.91
 10
858.355
 20
119.2
 10
851.215
 20
112.055
 10
858.355
 20
104.91
 10
858.355
 20
94.2
 10
851.215
 20
87.055
 10
829.785
 20
87.055
 10
822.645
 20
94.2
  0
LWPOLYLINE
  5
B5
330
1F
100
AcDbEntity
  8
text2
100
AcDbPolyline
 90
        7
 70
     1
 43
0.0
 10
779.785
 20
115.625
 10
797.645
 20
115.625
 10
801.215
 20
119.2
 10
801.215
 20
126.34
 10
797.645
 20
129.91
 10
779.785
 20
129.91
 10
779.785
 20
115.625
  0
LWPOLYLINE
  5
B6
330
1F
100
AcDbEntity
  8
text2
100
AcDbPolyline
 90
        9
 70
     1
 43
0.0
 10
772.645
 20
87.055
 10
772.645
 20
137.055
 10
801.215
 20
137.055
 10
808.355
 20
129.91
 10
808.355
 20
115.625
 10
801.215
 20
108.485
 10
779.785
 20
108.485
 10
779.785
 20
87.055
 10
772.645
 20
87.055
  0
LWPOLYLINE
  5
B7
330
1F
100
AcDbEntity
  8
text2
100
AcDbPolyline
 90
       26
 70
     1
 43
0.0
 10
822.645
 20
94.2
 10
829.785
 20
97.77
 10
833.355
 20
94.2
 10
847.645
 20
94.2
 10
851.215
 20
97.77
 10
851.215
 20
101.34
 10
844.07
 20
108.485
 10
836.9300000000001
 20
108.485
 10
836.9300000000001
 20
115.625
 10
844.07
 20
115.625
 10
851.215
 20
122.77
 10
851.215
 20
126.34
 10
847.645
 20
129.91
 10
833.355
 20
129.91
 10
829.785
 20
126.34
 10
822.645
 20
129.91
 10
829.785
 20
137.055
 10
851.215
 20
137.055
 10
858.355
 20
129.91
 10
858.355
 20
119.2
 10
851.215
 20
112.055
 10
858.355
 20
104.91
 10
858.355
 20
94.2
 10
851.215
 20
87.055
 10
829.785
 20
87.055
 10
822.645
 20
94.2
  0
LWPOLYLINE
  5
B8
330
1F
100
AcDbEntity
  8
text2
100
AcDbPolyline
 90
        7
 70
     1
 43
0.0
 10
779.785
 20
115.625
 10
797.645
 20
115.625
 10
801.215
 20
119.2
 10
801.215
 20
126.34
 10
797.645
 20
129.91
 10
779.785
 20
129.91
 10
779.785
 20
115.625
  0
LWPOLYLINE
  5
B9
330
1F
100
AcDbEntity
  8
text2
100
AcDbPolyline
 90
        9
 70
     1
 43
0.0
 10
772.645
 20
87.055
 10
772.645
 20
137.055
 10
801.215
 20
137.055
 10
808.355
 20
129.91
 10
808.355
 20
115.625
 10
801.215
 20
108.485
 10
779.785
 20
108.485
 10
779.785
 20
87.055
 10
772.645
 20
87.055
  0
LWPOLYLINE
  5
BA
330
1F
100
AcDbEntity
  8
text2
100
AcDbPolyline
 90
       11
 70
     1
 43
0.0
 10
371.929
 20
79.48100000000001
 10
371.929
 20
83.768
 10
376.216
 20
83.768
 10
376.216
 20
105.194
 10
371.929
 20
105.194
 10
376.216
 20
109.481
 10
380.5
 20
109.481
 10
380.5
 20
83.768
 10
384.787
 20
83.768
 10
384.787
 20
79.48100000000001
 10
371.929
 20
79.48100000000001
  0
LWPOLYLINE
  5
BB
330
1F
100
AcDbEntity
  8
text2
100
AcDbPolyline
 90
       11
 70
     1
 43
0.0
 10
371.929
 20
79.48100000000001
 10
371.929
 20
83.768
 10
376.216
 20
83.768
 10
376.216
 20
105.194
 10
371.929
 20
105.194
 10
376.216
 20
109.481
 10
380.5
 20
109.481
 10
380.5
 20
83.768
 10
384.787
 20
83.768
 10
384.787
 20
79.48100000000001
 10
371.929
 20
79.48100000000001
  0
ENDSEC
  0
SECTION
  2
OBJECTS
  0
DICTIONARY
  5
C
330
0
100
AcDbDictionary
281
     1
  3
ACAD_GROUP
350
D
  3
ACAD_LAYOUT
350
1A
  3
ACAD_MLEADERSTYLE
350
C4
  3
ACAD_MLINESTYLE
350
17
  3
ACAD_PLOTSETTINGS
350
19
  3
ACAD_PLOTSTYLENAME
350
E
  3
ACAD_SCALELIST
350
3B
  3
ACAD_TABLESTYLE
350
C3
  3
ACAD_VISUALSTYLE
350
2A
  0
DICTIONARY
  5
D
102
{ACAD_REACTORS
330
C
102
}
330
C
100
AcDbDictionary
281
     1
  0
DICTIONARY
  5
1A
102
{ACAD_REACTORS
330
C
102
}
330
C
100
AcDbDictionary
281
     1
  3
Layout1
350
1E
  3
Layout2
350
26
  3
Model
350
22
  0
DICTIONARY
  5
C4
102
{ACAD_REACTORS
330
C
102
}
330
C
100
AcDbDictionary
281
     1
  0
DICTIONARY
  5
17
102
{ACAD_REACTORS
330
C
102
}
330
C
100
AcDbDictionary
281
     1
  3
Standard
350
18
  0
DICTIONARY
  5
19
102
{ACAD_REACTORS
330
C
102
}
330
C
100
AcDbDictionary
281
     1
  0
ACDBDICTIONARYWDFLT
  5
E
102
{ACAD_REACTORS
330
C
102
}
330
C
100
AcDbDictionary
281
     1
  3
Normal
350
F
100
AcDbDictionaryWithDefault
340
F
  0
DICTIONARY
  5
3B
102
{ACAD_REACTORS
330
C
102
}
330
C
100
AcDbDictionary
281
     1
  3
A0
350
3C
  3
A1
350
3D
  3
A2
350
3E
  3
A3
350
3F
  3
A4
350
40
  3
A5
350
41
  3
A6
350
42
  3
A7
350
43
  3
A8
350
44
  3
A9
350
45
  3
B0
350
46
  3
B1
350
47
  3
B2
350
48
  3
B3
350
49
  3
B4
350
4A
  3
B5
350
4B
  3
B6
350
4C
  3
B7
350
4D
  3
B8
350
4E
  3
B9
350
4F
  3
C0
350
50
  3
C1
350
51
  3
C2
350
52
  3
C3
350
53
  3
C4
350
54
  3
C5
350
55
  3
C6
350
56
  3
C7
350
57
  3
C8
350
58
  3
C9
350
59
  3
D0
350
5A
  3
D1
350
5B
  3
D2
350
5C
  0
DICTIONARY
  5
C3
102
{ACAD_REACTORS
330
C
102
}
330
C
100
AcDbDictionary
281
     1
  0
DICTIONARY
  5
2A
102
{ACAD_REACTORS
330
C
102
}
330
C
100
AcDbDictionary
281
     1
  3
2dWireframe
350
2F
  3
3D Hidden
350
31
  3
3dWireframe
350
30
  3
Basic
350
32
  3
Brighten
350
36
  3
ColorChange
350
3A
  3
Conceptual
350
34
  3
Dim
350
35
  3
Facepattern
350
39
  3
Flat
350
2B
  3
FlatWithEdges
350
2C
  3
Gouraud
350
2D
  3
GouraudWithEdges
350
2E
  3
Linepattern
350
38
  3
Realistic
350
33
  3
Thicken
350
37
  0
LAYOUT
  5
1E
102
{ACAD_REACTORS
330
1A
102
}
330
1A
100
AcDbPlotSettings
  1

  2
none_device
  4

  6

 40
0.0
 41
0.0
 42
0.0
 43
0.0
 44
0.0
 45
0.0
 46
0.0
 47
0.0
 48
0.0
 49
0.0
140
0.0
141
0.0
142
1.0
143
1.0
 70
   688
 72
     0
 73
     0
 74
     5
  7

 75
    16
 76
     0
 77
     2
 78
   300
147
1.0
148
0.0
149
0.0
100
AcDbLayout
  1
Layout1
 70
     1
 71
     1
 10
0.0
 20
0.0
 11
12.0
 21
9.0
 12
0.0
 22
0.0
 32
0.0
 14
1.000000000000000E+20
 24
1.000000000000000E+20
 34
1.000000000000000E+20
 15
-1.000000000000000E+20
 25
-1.000000000000000E+20
 35
-1.000000000000000E+20
146
0.0
 13
0.0
 23
0.0
 33
0.0
 16
1.0
 26
0.0
 36
0.0
 17
0.0
 27
1.0
 37
0.0
 76
     0
330
1B
  0
LAYOUT
  5
26
102
{ACAD_REACTORS
330
1A
102
}
330
1A
100
AcDbPlotSettings
  1

  2
none_device
  4

  6

 40
0.0
 41
0.0
 42
0.0
 43
0.0
 44
0.0
 45
0.0
 46
0.0
 47
0.0
 48
0.0
 49
0.0
140
0.0
141
0.0
142
1.0
143
1.0
 70
   688
 72
     0
 73
     0
 74
     5
  7

 75
    16
 76
     0
 77
     2
 78
   300
147
1.0
148
0.0
149
0.0
100
AcDbLayout
  1
Layout2
 70
     1
 71
     2
 10
0.0
 20
0.0
 11
0.0
 21
0.0
 12
0.0
 22
0.0
 32
0.0
 14
0.0
 24
0.0
 34
0.0
 15
0.0
 25
0.0
 35
0.0
146
0.0
 13
0.0
 23
0.0
 33
0.0
 16
1.0
 26
0.0
 36
0.0
 17
0.0
 27
1.0
 37
0.0
 76
     0
330
23
  0
LAYOUT
  5
22
102
{ACAD_REACTORS
330
1A
102
}
330
1A
100
AcDbPlotSettings
  1

  2
none_device
  4

  6

 40
0.0
 41
0.0
 42
0.0
 43
0.0
 44
0.0
 45
0.0
 46
0.0
 47
0.0
 48
0.0
 49
0.0
140
0.0
141
0.0
142
1.0
143
1.0
 70
  1712
 72
     0
 73
     0
 74
     0
  7

 75
     0
 76
     0
 77
     2
 78
   300
147
1.0
148
0.0
149
0.0
100
AcDbLayout
  1
Model
 70
     1
 71
     0
 10
0.0
 20
0.0
 11
12.0
 21
9.0
 12
0.0
 22
0.0
 32
0.0
 14
1.000000000000000E+20
 24
1.000000000000000E+20
 34
1.000000000000000E+20
 15
-1.000000000000000E+20
 25
-1.000000000000000E+20
 35
-1.000000000000000E+20
146
0.0
 13
0.0
 23
0.0
 33
0.0
 16
1.0
 26
0.0
 36
0.0
 17
0.0
 27
1.0
 37
0.0
 76
     0
330
1F
331
29
  0
MLINESTYLE
  5
18
102
{ACAD_REACTORS
330
17
102
}
330
17
100
AcDbMlineStyle
  2
Standard
 70
     0
  3

 62
   256
 51
90.0
 52
90.0
 71
     2
 49
0.5
 62
   256
  6
BYLAYER
 49
-0.5
 62
   256
  6
BYLAYER
  0
ACDBPLACEHOLDER
  5
F
102
{ACAD_REACTORS
330
E
102
}
330
E
  0
SCALE
  5
3C
102
{ACAD_REACTORS
330
3B
102
}
330
3B
100
AcDbScale
 70
     0
300
1:1
140
1.0
141
1.0
290
     1
  0
SCALE
  5
3D
102
{ACAD_REACTORS
330
3B
102
}
330
3B
100
AcDbScale
 70
     0
300
1:2
140
1.0
141
2.0
290
     0
  0
SCALE
  5
3E
102
{ACAD_REACTORS
330
3B
102
}
330
3B
100
AcDbScale
 70
     0
300
1:4
140
1.0
141
4.0
290
     0
  0
SCALE
  5
3F
102
{ACAD_REACTORS
330
3B
102
}
330
3B
100
AcDbScale
 70
     0
300
1:5
140
1.0
141
5.0
290
     0
  0
SCALE
  5
40
102
{ACAD_REACTORS
330
3B
102
}
330
3B
100
AcDbScale
 70
     0
300
1:8
140
1.0
141
8.0
290
     0
  0
SCALE
  5
41
102
{ACAD_REACTORS
330
3B
102
}
330
3B
100
AcDbScale
 70
     0
300
1:10
140
1.0
141
10.0
290
     0
  0
SCALE
  5
42
102
{ACAD_REACTORS
330
3B
102
}
330
3B
100
AcDbScale
 70
     0
300
1:16
140
1.0
141
16.0
290
     0
  0
SCALE
  5
43
102
{ACAD_REACTORS
330
3B
102
}
330
3B
100
AcDbScale
 70
     0
300
1:20
140
1.0
141
20.0
290
     0
  0
SCALE
  5
44
102
{ACAD_REACTORS
330
3B
102
}
330
3B
100
AcDbScale
 70
     0
300
1:30
140
1.0
141
30.0
290
     0
  0
SCALE
  5
45
102
{ACAD_REACTORS
330
3B
102
}
330
3B
100
AcDbScale
 70
     0
300
1:40
140
1.0
141
40.0
290
     0
  0
SCALE
  5
46
102
{ACAD_REACTORS
330
3B
102
}
330
3B
100
AcDbScale
 70
     0
300
1:50
140
1.0
141
50.0
290
     0
  0
SCALE
  5
47
102
{ACAD_REACTORS
330
3B
102
}
330
3B
100
AcDbScale
 70
     0
300
1:100
140
1.0
141
100.0
290
     0
  0
SCALE
  5
48
102
{ACAD_REACTORS
330
3B
102
}
330
3B
100
AcDbScale
 70
     0
300
2:1
140
2.0
141
1.0
290
     0
  0
SCALE
  5
49
102
{ACAD_REACTORS
330
3B
102
}
330
3B
100
AcDbScale
 70
     0
300
4:1
140
4.0
141
1.0
290
     0
  0
SCALE
  5
4A
102
{ACAD_REACTORS
330
3B
102
}
330
3B
100
AcDbScale
 70
     0
300
8:1
140
8.0
141
1.0
290
     0
  0
SCALE
  5
4B
102
{ACAD_REACTORS
330
3B
102
}
330
3B
100
AcDbScale
 70
     0
300
10:1
140
10.0
141
1.0
290
     0
  0
SCALE
  5
4C
102
{ACAD_REACTORS
330
3B
102
}
330
3B
100
AcDbScale
 70
     0
300
100:1
140
100.0
141
1.0
290
     0
  0
SCALE
  5
4D
102
{ACAD_REACTORS
330
3B
102
}
330
3B
100
AcDbScale
 70
     0
300
1/128" = 1'-0"
140
0.0078125
141
12.0
290
     0
  0
SCALE
  5
4E
102
{ACAD_REACTORS
330
3B
102
}
330
3B
100
AcDbScale
 70
     0
300
1/64" = 1'-0"
140
0.015625
141
12.0
290
     0
  0
SCALE
  5
4F
102
{ACAD_REACTORS
330
3B
102
}
330
3B
100
AcDbScale
 70
     0
300
1/32" = 1'-0"
140
0.03125
141
12.0
290
     0
  0
SCALE
  5
50
102
{ACAD_REACTORS
330
3B
102
}
330
3B
100
AcDbScale
 70
     0
300
1/16" = 1'-0"
140
0.0625
141
12.0
290
     0
  0
SCALE
  5
51
102
{ACAD_REACTORS
330
3B
102
}
330
3B
100
AcDbScale
 70
     0
300
3/32" = 1'-0"
140
0.09375
141
12.0
290
     0
  0
SCALE
  5
52
102
{ACAD_REACTORS
330
3B
102
}
330
3B
100
AcDbScale
 70
     0
300
1/8" = 1'-0"
140
0.125
141
12.0
290
     0
  0
SCALE
  5
53
102
{ACAD_REACTORS
330
3B
102
}
330
3B
100
AcDbScale
 70
     0
300
3/16" = 1'-0"
140
0.1875
141
12.0
290
     0
  0
SCALE
  5
54
102
{ACAD_REACTORS
330
3B
102
}
330
3B
100
AcDbScale
 70
     0
300
1/4" = 1'-0"
140
0.25
141
12.0
290
     0
  0
SCALE
  5
55
102
{ACAD_REACTORS
330
3B
102
}
330
3B
100
AcDbScale
 70
     0
300
3/8" = 1'-0"
140
0.375
141
12.0
290
     0
  0
SCALE
  5
56
102
{ACAD_REACTORS
330
3B
102
}
330
3B
100
AcDbScale
 70
     0
300
1/2" = 1'-0"
140
0.5
141
12.0
290
     0
  0
SCALE
  5
57
102
{ACAD_REACTORS
330
3B
102
}
330
3B
100
AcDbScale
 70
     0
300
3/4" = 1'-0"
140
0.75
141
12.0
290
     0
  0
SCALE
  5
58
102
{ACAD_REACTORS
330
3B
102
}
330
3B
100
AcDbScale
 70
     0
300
1" = 1'-0"
140
1.0
141
12.0
290
     0
  0
SCALE
  5
59
102
{ACAD_REACTORS
330
3B
102
}
330
3B
100
AcDbScale
 70
     0
300
1-1/2" = 1'-0"
140
1.5
141
12.0
290
     0
  0
SCALE
  5
5A
102
{ACAD_REACTORS
330
3B
102
}
330
3B
100
AcDbScale
 70
     0
300
3" = 1'-0"
140
3.0
141
12.0
290
     0
  0
SCALE
  5
5B
102
{ACAD_REACTORS
330
3B
102
}
330
3B
100
AcDbScale
 70
     0
300
6" = 1'-0"
140
6.0
141
12.0
290
     0
  0
SCALE
  5
5C
102
{ACAD_REACTORS
330
3B
102
}
330
3B
100
AcDbScale
 70
     0
300
1'-0" = 1'-0"
140
12.0
141
12.0
290
     0
  0
VISUALSTYLE
  5
2F
102
{ACAD_REACTORS
330
2A
102
}
330
2A
100
AcDbVisualStyle
  2
2dWireframe
 70
     4
 71
     0
 72
     2
 73
     0
 90
        0
 40
-0.6
 41
-30.0
 62
     5
 63
     7
421
 16777215
 74
     1
 91
        4
 64
     7
 65
   257
 75
     1
175
     1
 42
1.0
 92
        0
 66
   257
 43
1.0
 76
     1
 77
     6
 78
     2
 67
     7
 79
     5
170
     0
171
     0
290
     0
174
     0
 93
        1
 44
0.0
173
     0
291
     0
 45
0.0
1001
ACAD
1000
AcDbSavedByObjectVersion
1070
     0
  0
VISUALSTYLE
  5
31
102
{ACAD_REACTORS
330
2A
102
}
330
2A
100
AcDbVisualStyle
  2
3D Hidden
 70
     6
 71
     1
 72
     2
 73
     2
 90
        0
 40
-0.6
 41
-30.0
 62
     5
 63
     7
421
 16777215
 74
     2
 91
        2
 64
     7
 65
   257
 75
     2
175
     1
 42
40.0
 92
        0
 66
   257
 43
1.0
 76
     1
 77
     6
 78
     2
 67
     7
 79
     3
170
     0
171
     0
290
     0
174
     0
 93
        1
 44
0.0
173
     0
291
     0
 45
0.0
1001
ACAD
1000
AcDbSavedByObjectVersion
1070
     0
  0
VISUALSTYLE
  5
30
102
{ACAD_REACTORS
330
2A
102
}
330
2A
100
AcDbVisualStyle
  2
3dWireframe
 70
     5
 71
     0
 72
     2
 73
     0
 90
        0
 40
-0.6
 41
-30.0
 62
     5
 63
     7
421
 16777215
 74
     1
 91
        4
 64
     7
 65
   257
 75
     1
175
     1
 42
1.0
 92
        0
 66
   257
 43
1.0
 76
     1
 77
     6
 78
     2
 67
     7
 79
     5
170
     0
171
     0
290
     0
174
     0
 93
        1
 44
0.0
173
     0
291
     0
 45
0.0
1001
ACAD
1000
AcDbSavedByObjectVersion
1070
     0
  0
VISUALSTYLE
  5
32
102
{ACAD_REACTORS
330
2A
102
}
330
2A
100
AcDbVisualStyle
  2
Basic
 70
     7
 71
     1
 72
     0
 73
     1
 90
        0
 40
-0.6
 41
-30.0
 62
     5
 63
     7
421
 16777215
 74
     0
 91
        4
 64
     7
 65
   257
 75
     1
175
     1
 42
1.0
 92
        8
 66
     7
 43
1.0
 76
     1
 77
     6
 78
     2
 67
     7
 79
     5
170
     0
171
     0
290
     0
174
     0
 93
        1
 44
0.0
173
     0
291
     1
 45
0.0
1001
ACAD
1000
AcDbSavedByObjectVersion
1070
     0
  0
VISUALSTYLE
  5
36
102
{ACAD_REACTORS
330
2A
102
}
330
2A
100
AcDbVisualStyle
  2
Brighten
 70
    12
 71
     2
 72
     2
 73
     0
 90
        0
 40
-0.6
 41
-30.0
 62
     5
 63
     7
421
 16777215
 74
     1
 91
        4
 64
     7
 65
   257
 75
     1
175
     1
 42
1.0
 92
        8
 66
     7
 43
1.0
 76
     1
 77
     6
 78
     2
 67
     7
 79
     5
170
     0
171
     0
290
     0
174
     0
 93
        1
 44
50.0
173
     0
291
     1
 45
0.0
1001
ACAD
1000
AcDbSavedByObjectVersion
1070
     0
  0
VISUALSTYLE
  5
3A
102
{ACAD_REACTORS
330
2A
102
}
330
2A
100
AcDbVisualStyle
  2
ColorChange
 70
    16
 71
     2
 72
     2
 73
     3
 90
        0
 40
-0.6
 41
-30.0
 62
     5
 63
     8
421
  8421504
 74
     1
 91
        4
 64
     7
 65
   257
 75
     1
175
     1
 42
1.0
 92
        8
 66
     8
424
  8421504
 43
1.0
 76
     1
 77
     6
 78
     2
 67
     7
 79
     5
170
     0
171
     0
290
     0
174
     0
 93
        1
 44
0.0
173
     0
291
     1
 45
0.0
1001
ACAD
1000
AcDbSavedByObjectVersion
1070
     0
  0
VISUALSTYLE
  5
34
102
{ACAD_REACTORS
330
2A
102
}
330
2A
100
AcDbVisualStyle
  2
Conceptual
 70
     9
 71
     3
 72
     2
 73
     0
 90
        0
 40
-0.6
 41
-30.0
 62
     5
 63
     7
421
 16777215
 74
     2
 91
        2
 64
     7
 65
   257
 75
     1
175
     1
 42
40.0
 92
        8
 66
     7
 43
1.0
 76
     1
 77
     6
 78
     2
 67
     7
 79
     3
170
     0
171
     0
290
     0
174
     0
 93
        1
 44
0.0
173
     0
291
     0
 45
0.0
1001
ACAD
1000
AcDbSavedByObjectVersion
1070
     0
  0
VISUALSTYLE
  5
35
102
{ACAD_REACTORS
330
2A
102
}
330
2A
100
AcDbVisualStyle
  2
Dim
 70
    11
 71
     2
 72
     2
 73
     0
 90
        0
 40
-0.6
 41
-30.0
 62
     5
 63
     7
421
 16777215
 74
     1
 91
        4
 64
     7
 65
   257
 75
     1
175
     1
 42
1.0
 92
        8
 66
     7
 43
1.0
 76
     1
 77
     6
 78
     2
 67
     7
 79
     5
170
     0
171
     0
290
     0
174
     0
 93
        1
 44
-50.0
173
     0
291
     1
 45
0.0
1001
ACAD
1000
AcDbSavedByObjectVersion
1070
     0
  0
VISUALSTYLE
  5
39
102
{ACAD_REACTORS
330
2A
102
}
330
2A
100
AcDbVisualStyle
  2
Facepattern
 70
    15
 71
     2
 72
     2
 73
     0
 90
        0
 40
-0.6
 41
-30.0
 62
     5
 63
     7
421
 16777215
 74
     1
 91
        4
 64
     7
 65
   257
 75
     1
175
     1
 42
1.0
 92
        8
 66
     7
 43
1.0
 76
     1
 77
     6
 78
     2
 67
     7
 79
     5
170
     0
171
     0
290
     0
174
     0
 93
        1
 44
0.0
173
     0
291
     1
 45
0.0
1001
ACAD
1000
AcDbSavedByObjectVersion
1070
     0
  0
VISUALSTYLE
  5
2B
102
{ACAD_REACTORS
330
2A
102
}
330
2A
100
AcDbVisualStyle
  2
Flat
 70
     0
 71
     2
 72
     1
 73
     1
 90
        2
 40
-0.6
 41
30.0
 62
     5
 63
     7
421
 16777215
 74
     0
 91
        4
 64
     7
 65
   257
 75
     1
175
     1
 42
1.0
 92
        8
 66
     7
 43
1.0
 76
     1
 77
     6
 78
     2
 67
     7
 79
     5
170
     0
171
     0
290
     0
174
     0
 93
       13
 44
0.0
173
     0
291
     1
 45
0.0
1001
ACAD
1000
AcDbSavedByObjectVersion
1070
     0
  0
VISUALSTYLE
  5
2C
102
{ACAD_REACTORS
330
2A
102
}
330
2A
100
AcDbVisualStyle
  2
FlatWithEdges
 70
     1
 71
     2
 72
     1
 73
     1
 90
        2
 40
-0.6
 41
30.0
 62
     5
 63
     7
421
 16777215
 74
     1
 91
        4
 64
     7
 65
   257
 75
     1
175
     1
 42
1.0
 92
        0
 66
   257
 43
1.0
 76
     1
 77
     6
 78
     2
 67
     7
 79
     5
170
     0
171
     0
290
     0
174
     0
 93
       13
 44
0.0
173
     0
291
     1
 45
0.0
1001
ACAD
1000
AcDbSavedByObjectVersion
1070
     0
  0
VISUALSTYLE
  5
2D
102
{ACAD_REACTORS
330
2A
102
}
330
2A
100
AcDbVisualStyle
  2
Gouraud
 70
     2
 71
     2
 72
     2
 73
     1
 90
        2
 40
-0.6
 41
30.0
 62
     5
 63
     7
421
 16777215
 74
     0
 91
        4
 64
     7
 65
   257
 75
     1
175
     1
 42
1.0
 92
        0
 66
     7
 43
1.0
 76
     1
 77
     6
 78
     2
 67
     7
 79
     5
170
     0
171
     0
290
     0
174
     0
 93
       13
 44
0.0
173
     0
291
     1
 45
0.0
1001
ACAD
1000
AcDbSavedByObjectVersion
1070
     0
  0
VISUALSTYLE
  5
2E
102
{ACAD_REACTORS
330
2A
102
}
330
2A
100
AcDbVisualStyle
  2
GouraudWithEdges
 70
     3
 71
     2
 72
     2
 73
     1
 90
        2
 40
-0.6
 41
30.0
 62
     5
 63
     7
421
 16777215
 74
     1
 91
        4
 64
     7
 65
   257
 75
     1
175
     1
 42
1.0
 92
        0
 66
   257
 43
1.0
 76
     1
 77
     6
 78
     2
 67
     7
 79
     5
170
     0
171
     0
290
     0
174
     0
 93
       13
 44
0.0
173
     0
291
     1
 45
0.0
1001
ACAD
1000
AcDbSavedByObjectVersion
1070
     0
  0
VISUALSTYLE
  5
38
102
{ACAD_REACTORS
330
2A
102
}
330
2A
100
AcDbVisualStyle
  2
Linepattern
 70
    14
 71
     2
 72
     2
 73
     0
 90
        0
 40
-0.6
 41
-30.0
 62
     5
 63
     7
421
 16777215
 74
     1
 91
        4
 64
     7
 65
   257
 75
     7
175
     7
 42
1.0
 92
        8
 66
     7
 43
1.0
 76
     1
 77
     6
 78
     2
 67
     7
 79
     5
170
     0
171
     0
290
     0
174
     0
 93
        1
 44
0.0
173
     0
291
     1
 45
0.0
1001
ACAD
1000
AcDbSavedByObjectVersion
1070
     0
  0
VISUALSTYLE
  5
33
102
{ACAD_REACTORS
330
2A
102
}
330
2A
100
AcDbVisualStyle
  2
Realistic
 70
     8
 71
     2
 72
     2
 73
     0
 90
        0
 40
-0.6
 41
-30.0
 62
     5
 63
     7
421
 16777215
 74
     1
 91
        0
 64
     7
 65
   257
 75
     1
175
     1
 42
1.0
 92
        8
 66
     8
424
  7895160
 43
1.0
 76
     1
 77
     6
 78
     2
 67
     7
 79
     5
170
     0
171
     0
290
     0
174
     0
 93
       13
 44
0.0
173
     0
291
     0
 45
0.0
1001
ACAD
1000
AcDbSavedByObjectVersion
1070
     0
  0
VISUALSTYLE
  5
37
102
{ACAD_REACTORS
330
2A
102
}
330
2A
100
AcDbVisualStyle
  2
Thicken
 70
    13
 71
     2
 72
     2
 73
     0
 90
        0
 40
-0.6
 41
-30.0
 62
     5
 63
     7
421
 16777215
 74
     1
 91
        4
 64
     7
 65
   257
 75
     1
175
     1
 42
1.0
 92
       12
 66
     7
 43
1.0
 76
     1
 77
     6
 78
     2
 67
     7
 79
     5
170
     0
171
     0
290
     0
174
     0
 93
        1
 44
0.0
173
     0
291
     1
 45
0.0
1001
ACAD
1000
AcDbSavedByObjectVersion
1070
     0
  0
ENDSEC
  0
EOF
