  0
SECTION
  2
HEADER
  9
$ACADVER
  1
AC1018
  9
$ACADMAINTVER
 70
     0
  9
$DWGCODEPAGE
  3
ANSI_1252
  9
$INSBASE
 10
0.0
 20
0.0
 30
0.0
  9
$EXTMIN
 10
1.000000000000000E+20
 20
1.000000000000000E+20
 30
1.000000000000000E+20
  9
$EXTMAX
 10
-1.000000000000000E+20
 20
-1.000000000000000E+20
 30
-1.000000000000000E+20
  9
$LIMMIN
 10
0.0
 20
0.0
  9
$LIMMAX
 10
12.0
 20
9.0
  9
$ORTHOMODE
 70
     0
  9
$REGENMODE
 70
     1
  9
$FILLMODE
 70
     1
  9
$QTEXTMODE
 70
     0
  9
$MIRRTEXT
 70
     1
  9
$LTSCALE
 40
1.0
  9
$ATTMODE
 70
     1
  9
$TEXTSIZE
 40
0.2
  9
$TRACEWID
 40
0.05
  9
$TEXTSTYLE
  7
Standard
  9
$CLAYER
  8
0
  9
$CELTYPE
  6
ByLayer
  9
$CECOLOR
 62
   256
  9
$CELTSCALE
 40
1.0
  9
$DISPSILH
 70
     0
  9
$DIMSCALE
 40
1.0
  9
$DIMASZ
 40
0.18
  9
$DIMEXO
 40
0.0625
  9
$DIMDLI
 40
0.38
  9
$DIMRND
 40
0.0
  9
$DIMDLE
 40
0.0
  9
$DIMEXE
 40
0.18
  9
$DIMTP
 40
0.0
  9
$DIMTM
 40
0.0
  9
$DIMTXT
 40
0.18
  9
$DIMCEN
 40
0.09
  9
$DIMTSZ
 40
0.0
  9
$DIMTOL
 70
     0
  9
$DIMLIM
 70
     0
  9
$DIMTIH
 70
     1
  9
$DIMTOH
 70
     1
  9
$DIMSE1
 70
     0
  9
$DIMSE2
 70
     0
  9
$DIMTAD
 70
     0
  9
$DIMZIN
 70
     0
  9
$DIMBLK
  1

  9
$DIMASO
 70
     1
  9
$DIMSHO
 70
     1
  9
$DIMPOST
  1

  9
$DIMAPOST
  1

  9
$DIMALT
 70
     0
  9
$DIMALTD
 70
     2
  9
$DIMALTF
 40
25.4
  9
$DIMLFAC
 40
1.0
  9
$DIMTOFL
 70
     0
  9
$DIMTVP
 40
0.0
  9
$DIMTIX
 70
     0
  9
$DIMSOXD
 70
     0
  9
$DIMSAH
 70
     0
  9
$DIMBLK1
  1

  9
$DIMBLK2
  1

  9
$DIMSTYLE
  2
Standard
  9
$DIMCLRD
 70
     0
  9
$DIMCLRE
 70
     0
  9
$DIMCLRT
 70
     0
  9
$DIMTFAC
 40
1.0
  9
$DIMGAP
 40
0.09
  9
$DIMJUST
 70
     0
  9
$DIMSD1
 70
     0
  9
$DIMSD2
 70
     0
  9
$DIMTOLJ
 70
     1
  9
$DIMTZIN
 70
     0
  9
$DIMALTZ
 70
     0
  9
$DIMALTTZ
 70
     0
  9
$DIMUPT
 70
     0
  9
$DIMDEC
 70
     4
  9
$DIMTDEC
 70
     4
  9
$DIMALTU
 70
     2
  9
$DIMALTTD
 70
     2
  9
$DIMTXSTY
  7
Standard
  9
$DIMAUNIT
 70
     0
  9
$DIMADEC
 70
     0
  9
$DIMALTRND
 40
0.0
  9
$DIMAZIN
 70
     0
  9
$DIMDSEP
 70
    46
  9
$DIMATFIT
 70
     3
  9
$DIMFRAC
 70
     0
  9
$DIMLDRBLK
  1

  9
$DIMLUNIT
 70
     2
  9
$DIMLWD
 70
    -2
  9
$DIMLWE
 70
    -2
  9
$DIMTMOVE
 70
     0
  9
$LUNITS
 70
     2
  9
$LUPREC
 70
     4
  9
$SKETCHINC
 40
0.1
  9
$FILLETRAD
 40
0.5
  9
$AUNITS
 70
     0
  9
$AUPREC
 70
     0
  9
$MENU
  1
.
  9
$ELEVATION
 40
0.0
  9
$PELEVATION
 40
0.0
  9
$THICKNESS
 40
0.0
  9
$LIMCHECK
 70
     0
  9
$CHAMFERA
 40
0.5
  9
$CHAMFERB
 40
0.5
  9
$CHAMFERC
 40
1.0
  9
$CHAMFERD
 40
0.0
  9
$SKPOLY
 70
     0
  9
$TDCREATE
 40
2456793.48063162
  9
$TDUCREATE
 40
2456793.397298287
  9
$TDUPDATE
 40
2456793.480631632
  9
$TDUUPDATE
 40
2456793.397298299
  9
$TDINDWG
 40
0.0000000116
  9
$TDUSRTIMER
 40
0.0000000116
  9
$USRTIMER
 70
     1
  9
$ANGBASE
 50
0.0
  9
$ANGDIR
 70
     0
  9
$PDMODE
 70
     0
  9
$PDSIZE
 40
0.0
  9
$PLINEWID
 40
0.0
  9
$SPLFRAME
 70
     0
  9
$SPLINETYPE
 70
     6
  9
$SPLINESEGS
 70
     8
  9
$HANDSEED
  5
B3
  9
$SURFTAB1
 70
     6
  9
$SURFTAB2
 70
     6
  9
$SURFTYPE
 70
     6
  9
$SURFU
 70
     6
  9
$SURFV
 70
     6
  9
$UCSBASE
  2

  9
$UCSNAME
  2

  9
$UCSORG
 10
0.0
 20
0.0
 30
0.0
  9
$UCSXDIR
 10
1.0
 20
0.0
 30
0.0
  9
$UCSYDIR
 10
0.0
 20
1.0
 30
0.0
  9
$UCSORTHOREF
  2

  9
$UCSORTHOVIEW
 70
     0
  9
$UCSORGTOP
 10
0.0
 20
0.0
 30
0.0
  9
$UCSORGBOTTOM
 10
0.0
 20
0.0
 30
0.0
  9
$UCSORGLEFT
 10
0.0
 20
0.0
 30
0.0
  9
$UCSORGRIGHT
 10
0.0
 20
0.0
 30
0.0
  9
$UCSORGFRONT
 10
0.0
 20
0.0
 30
0.0
  9
$UCSORGBACK
 10
0.0
 20
0.0
 30
0.0
  9
$PUCSBASE
  2

  9
$PUCSNAME
  2

  9
$PUCSORG
 10
0.0
 20
0.0
 30
0.0
  9
$PUCSXDIR
 10
1.0
 20
0.0
 30
0.0
  9
$PUCSYDIR
 10
0.0
 20
1.0
 30
0.0
  9
$PUCSORTHOREF
  2

  9
$PUCSORTHOVIEW
 70
     0
  9
$PUCSORGTOP
 10
0.0
 20
0.0
 30
0.0
  9
$PUCSORGBOTTOM
 10
0.0
 20
0.0
 30
0.0
  9
$PUCSORGLEFT
 10
0.0
 20
0.0
 30
0.0
  9
$PUCSORGRIGHT
 10
0.0
 20
0.0
 30
0.0
  9
$PUCSORGFRONT
 10
0.0
 20
0.0
 30
0.0
  9
$PUCSORGBACK
 10
0.0
 20
0.0
 30
0.0
  9
$USERI1
 70
     0
  9
$USERI2
 70
     0
  9
$USERI3
 70
     0
  9
$USERI4
 70
     0
  9
$USERI5
 70
     0
  9
$USERR1
 40
0.0
  9
$USERR2
 40
0.0
  9
$USERR3
 40
0.0
  9
$USERR4
 40
0.0
  9
$USERR5
 40
0.0
  9
$WORLDVIEW
 70
     1
  9
$SHADEDGE
 70
     3
  9
$SHADEDIF
 70
    70
  9
$TILEMODE
 70
     1
  9
$MAXACTVP
 70
    64
  9
$PINSBASE
 10
0.0
 20
0.0
 30
0.0
  9
$PLIMCHECK
 70
     0
  9
$PEXTMIN
 10
1.000000000000000E+20
 20
1.000000000000000E+20
 30
1.000000000000000E+20
  9
$PEXTMAX
 10
-1.000000000000000E+20
 20
-1.000000000000000E+20
 30
-1.000000000000000E+20
  9
$PLIMMIN
 10
0.0
 20
0.0
  9
$PLIMMAX
 10
12.0
 20
9.0
  9
$UNITMODE
 70
     0
  9
$VISRETAIN
 70
     1
  9
$PLINEGEN
 70
     0
  9
$PSLTSCALE
 70
     1
  9
$TREEDEPTH
 70
  3020
  9
$CMLSTYLE
  2
Standard
  9
$CMLJUST
 70
     0
  9
$CMLSCALE
 40
1.0
  9
$PROXYGRAPHICS
 70
     1
  9
$MEASUREMENT
 70
     0
  9
$CELWEIGHT
370
    -1
  9
$ENDCAPS
280
     0
  9
$JOINSTYLE
280
     0
  9
$LWDISPLAY
290
     0
  9
$INSUNITS
 70
    13
  9
$HYPERLINKBASE
  1

  9
$STYLESHEET
  1

  9
$XEDIT
290
     1
  9
$CEPSNTYPE
380
     0
  9
$PSTYLEMODE
290
     1
  9
$FINGERPRINTGUID
  2
{B8749C85-BCF3-4AAD-87E8-5253E83D5886}
  9
$VERSIONGUID
  2
{FAEB1C32-E019-11D5-929B-00C0DF256EC4}
  9
$EXTNAMES
290
     1
  9
$PSVPSCALE
 40
0.0
  9
$OLESTARTUP
290
     0
  9
$SORTENTS
280
   127
  9
$INDEXCTL
280
     0
  9
$HIDETEXT
280
     1
  9
$XCLIPFRAME
290
     0
  9
$HALOGAP
280
     0
  9
$OBSCOLOR
 70
   257
  9
$OBSLTYPE
280
     0
  9
$INTERSECTIONDISPLAY
280
     0
  9
$INTERSECTIONCOLOR
 70
   257
  9
$DIMASSOC
280
     2
  9
$PROJECTNAME
  1

  0
ENDSEC
  0
SECTION
  2
CLASSES
  0
CLASS
  1
ACDBDICTIONARYWDFLT
  2
AcDbDictionaryWithDefault
  3
ObjectDBX Classes
 90
        0
 91
       11
280
     0
281
     0
  0
CLASS
  1
VISUALSTYLE
  2
AcDbVisualStyle
  3
ObjectDBX Classes
 90
     4095
 91
       11
280
     0
281
     0
  0
CLASS
  1
SCALE
  2
AcDbScale
  3
ObjectDBX Classes
 90
     1153
 91
       11
280
     0
281
     0
  0
ENDSEC
  0
SECTION
  2
TABLES
  0
TABLE
  2
VPORT
  5
8
330
0
100
AcDbSymbolTable
 70
     1
  0
VPORT
  5
29
330
8
100
AcDbSymbolTableRecord
100
AcDbViewportTableRecord
  2
*Active
 70
     0
 10
0.0
 20
0.0
 11
1.0
 21
1.0
 12
10.42990654205607
 22
4.5
 13
0.0
 23
0.0
 14
0.5
 24
0.5
 15
0.5
 25
0.5
 16
0.0
 26
0.0
 36
1.0
 17
0.0
 27
0.0
 37
0.0
 40
9.0
 41
1.972972972850329
 42
50.0
 43
0.0
 44
0.0
 50
0.0
 51
0.0
 71
     0
 72
   100
 73
     1
 74
     3
 75
     0
 76
     0
 77
     0
 78
     0
281
     0
 65
     1
110
0.0
120
0.0
130
0.0
111
1.0
121
0.0
131
0.0
112
0.0
122
1.0
132
0.0
 79
     0
146
0.0
  0
ENDTAB
  0
TABLE
  2
LTYPE
  5
5
330
0
100
AcDbSymbolTable
 70
     1
  0
LTYPE
  5
14
330
5
100
AcDbSymbolTableRecord
100
AcDbLinetypeTableRecord
  2
ByBlock
 70
     0
  3

 72
    65
 73
     0
 40
0.0
  0
LTYPE
  5
15
330
5
100
AcDbSymbolTableRecord
100
AcDbLinetypeTableRecord
  2
ByLayer
 70
     0
  3

 72
    65
 73
     0
 40
0.0
  0
LTYPE
  5
16
330
5
100
AcDbSymbolTableRecord
100
AcDbLinetypeTableRecord
  2
Continuous
 70
     0
  3
Solid line
 72
    65
 73
     0
 40
0.0
  0
ENDTAB
  0
TABLE
  2
LAYER
  5
2
330
0
100
AcDbSymbolTable
 70
     2
  0
LAYER
  5
10
330
2
100
AcDbSymbolTableRecord
100
AcDbLayerTableRecord
  2
0
 70
     0
 62
     7
  6
Continuous
370
    -3
390
F
  0
LAYER
  5
5E
330
2
100
AcDbSymbolTableRecord
100
AcDbLayerTableRecord
  2
text2
 70
     0
 62
    16
420
  8388608
  6
Continuous
370
    -3
390
F
  0
ENDTAB
  0
TABLE
  2
STYLE
  5
3
330
0
100
AcDbSymbolTable
 70
     1
  0
STYLE
  5
11
330
3
100
AcDbSymbolTableRecord
100
AcDbTextStyleTableRecord
  2
Standard
 70
     0
 40
0.0
 41
1.0
 50
0.0
 71
     0
 42
0.2
  3
txt
  4

  0
ENDTAB
  0
TABLE
  2
VIEW
  5
6
330
0
100
AcDbSymbolTable
 70
     0
  0
ENDTAB
  0
TABLE
  2
UCS
  5
7
330
0
100
AcDbSymbolTable
 70
     0
  0
ENDTAB
  0
TABLE
  2
APPID
  5
9
330
0
100
AcDbSymbolTable
 70
     1
  0
APPID
  5
12
330
9
100
AcDbSymbolTableRecord
100
AcDbRegAppTableRecord
  2
ACAD
 70
     0
  0
ENDTAB
  0
TABLE
  2
DIMSTYLE
  5
A
330
0
100
AcDbSymbolTable
 70
     1
100
AcDbDimStyleTable
  0
DIMSTYLE
105
27
330
A
100
AcDbSymbolTableRecord
100
AcDbDimStyleTableRecord
  2
Standard
 70
     0
340
11
  0
ENDTAB
  0
TABLE
  2
BLOCK_RECORD
  5
1
330
0
100
AcDbSymbolTable
 70
     1
  0
BLOCK_RECORD
  5
1F
330
1
100
AcDbSymbolTableRecord
100
AcDbBlockTableRecord
  2
*Model_Space
340
22
  0
BLOCK_RECORD
  5
1B
330
1
100
AcDbSymbolTableRecord
100
AcDbBlockTableRecord
  2
*Paper_Space
340
1E
  0
BLOCK_RECORD
  5
23
330
1
100
AcDbSymbolTableRecord
100
AcDbBlockTableRecord
  2
*Paper_Space0
340
26
  0
ENDTAB
  0
ENDSEC
  0
SECTION
  2
BLOCKS
  0
BLOCK
  5
20
330
1F
100
AcDbEntity
  8
0
100
AcDbBlockBegin
  2
*Model_Space
 70
     0
 10
0.0
 20
0.0
 30
0.0
  3
*Model_Space
  1

  0
ENDBLK
  5
21
330
1F
100
AcDbEntity
  8
0
100
AcDbBlockEnd
  0
BLOCK
  5
1C
330
1B
100
AcDbEntity
 67
     1
  8
0
100
AcDbBlockBegin
  2
*Paper_Space
 70
     0
 10
0.0
 20
0.0
 30
0.0
  3
*Paper_Space
  1

  0
ENDBLK
  5
1D
330
1B
100
AcDbEntity
 67
     1
  8
0
100
AcDbBlockEnd
  0
BLOCK
  5
24
330
23
100
AcDbEntity
  8
0
100
AcDbBlockBegin
  2
*Paper_Space0
 70
     0
 10
0.0
 20
0.0
 30
0.0
  3
*Paper_Space0
  1

  0
ENDBLK
  5
25
330
23
100
AcDbEntity
  8
0
100
AcDbBlockEnd
  0
ENDSEC
  0
SECTION
  2
ENTITIES
  0
LWPOLYLINE
  5
5D
330
1F
100
AcDbEntity
  8
text2
100
AcDbPolyline
 90
        4
 70
     1
 43
0.0
 10
0.0
 20
0.0
 10
0.0
 20
3000.0
 10
3000.0
 20
3000.0
 10
3000.0
 20
0.0
  0
LWPOLYLINE
  5
5F
330
1F
100
AcDbEntity
  8
text2
100
AcDbPolyline
 90
       10
 70
     1
 43
0.0
 10
2857.145
 20
220.0
 10
2857.145
 20
270.0
 10
2885.715
 20
270.0
 10
2892.855
 20
262.855
 10
2892.855
 20
252.145
 10
2885.715
 20
245.0
 10
2892.855
 20
237.855
 10
2892.855
 20
227.145
 10
2885.715
 20
220.0
 10
2857.145
 20
220.0
  0
LWPOLYLINE
  5
60
330
1F
100
AcDbEntity
  8
text2
100
AcDbPolyline
 90
        7
 70
     1
 43
0.0
 10
2864.285
 20
227.145
 10
2882.145
 20
227.145
 10
2885.715
 20
230.715
 10
2885.715
 20
234.285
 10
2878.57
 20
241.43
 10
2864.285
 20
241.43
 10
2864.285
 20
227.145
  0
LWPOLYLINE
  5
61
330
1F
100
AcDbEntity
  8
text2
100
AcDbPolyline
 90
        7
 70
     1
 43
0.0
 10
2864.285
 20
248.57
 10
2878.57
 20
248.57
 10
2885.715
 20
255.715
 10
2885.715
 20
259.285
 10
2882.145
 20
262.855
 10
2864.285
 20
262.855
 10
2864.285
 20
248.57
  0
LWPOLYLINE
  5
62
330
1F
100
AcDbEntity
  8
text2
100
AcDbPolyline
 90
        9
 70
     1
 43
0.0
 10
2161.787
 20
88.575
 10
2161.787
 20
138.575
 10
2190.357
 20
138.575
 10
2197.497
 20
131.43
 10
2197.497
 20
117.145
 10
2190.357
 20
110.005
 10
2168.927
 20
110.005
 10
2168.927
 20
88.575
 10
2161.787
 20
88.575
  0
LWPOLYLINE
  5
63
330
1F
100
AcDbEntity
  8
text2
100
AcDbPolyline
 90
       12
 70
     1
 43
0.0
 10
2240.357
 20
113.575
 10
2247.497
 20
113.575
 10
2247.497
 20
106.43
 10
2240.357
 20
106.43
 10
2240.357
 20
88.575
 10
2233.212
 20
88.575
 10
2233.212
 20
106.43
 10
2211.787
 20
106.43
 10
2211.787
 20
113.575
 10
2233.212
 20
138.575
 10
2240.357
 20
138.575
 10
2240.357
 20
113.575
  0
LWPOLYLINE
  5
64
330
1F
100
AcDbEntity
  8
text2
100
AcDbPolyline
 90
       17
 70
     1
 43
0.0
 10
2268.06
 20
67.515
 10
2268.06
 20
74.655
 10
2285.915
 20
74.655
 10
2289.49
 20
78.229
 10
2289.49
 20
85.371
 10
2285.915
 20
81.8
 10
2275.2
 20
81.8
 10
2268.06
 20
88.94500000000001
 10
2268.06
 20
103.23
 10
2275.2
 20
110.37
 10
2285.915
 20
110.37
 10
2289.49
 20
106.8
 10
2289.49
 20
110.37
 10
2296.63
 20
110.37
 10
2296.63
 20
74.655
 10
2289.49
 20
67.515
 10
2268.06
 20
67.515
  0
LWPOLYLINE
  5
65
330
1F
100
AcDbEntity
  8
text2
100
AcDbPolyline
 90
       13
 70
     1
 43
0.0
 10
2314.49
 20
81.8
 10
2314.49
 20
131.8
 10
2343.06
 20
131.8
 10
2350.2
 20
124.655
 10
2350.2
 20
110.37
 10
2343.06
 20
103.23
 10
2332.345
 20
103.23
 10
2350.2
 20
85.371
 10
2350.2
 20
81.8
 10
2343.06
 20
81.8
 10
2321.63
 20
103.23
 10
2321.63
 20
81.8
 10
2314.49
 20
81.8
  0
LWPOLYLINE
  5
66
330
1F
100
AcDbEntity
  8
text2
100
AcDbPolyline
 90
       25
 70
     1
 43
0.0
 10
2393.06
 20
131.8
 10
2400.2
 20
124.655
 10
2393.06
 20
121.085
 10
2389.49
 20
124.655
 10
2375.2
 20
124.655
 10
2371.63
 20
121.085
 10
2371.63
 20
113.945
 10
2375.2
 20
110.37
 10
2393.06
 20
110.37
 10
2400.2
 20
103.23
 10
2400.2
 20
88.94500000000001
 10
2393.06
 20
81.8
 10
2371.63
 20
81.8
 10
2364.49
 20
88.94500000000001
 10
2371.63
 20
92.515
 10
2375.2
 20
88.94500000000001
 10
2389.49
 20
88.94500000000001
 10
2393.06
 20
92.515
 10
2393.06
 20
99.655
 10
2389.49
 20
103.23
 10
2371.63
 20
103.23
 10
2364.49
 20
110.37
 10
2364.49
 20
124.655
 10
2371.63
 20
131.8
 10
2393.06
 20
131.8
  0
LWPOLYLINE
  5
67
330
1F
100
AcDbEntity
  8
text2
100
AcDbPolyline
 90
       21
 70
     1
 43
0.0
 10
2414.49
 20
88.94500000000001
 10
2414.49
 20
124.655
 10
2421.63
 20
131.8
 10
2443.06
 20
131.8
 10
2450.2
 20
124.655
 10
2450.2
 20
117.515
 10
2443.06
 20
117.515
 10
2443.06
 20
121.085
 10
2439.49
 20
124.655
 10
2425.2
 20
124.655
 10
2421.63
 20
121.085
 10
2421.63
 20
92.515
 10
2425.2
 20
88.94500000000001
 10
2439.49
 20
88.94500000000001
 10
2443.06
 20
92.515
 10
2443.06
 20
96.08500000000001
 10
2450.2
 20
96.08500000000001
 10
2450.2
 20
88.94500000000001
 10
2443.06
 20
81.8
 10
2421.63
 20
81.8
 10
2414.49
 20
88.94500000000001
  0
LWPOLYLINE
  5
68
330
1F
100
AcDbEntity
  8
text2
100
AcDbPolyline
 90
        9
 70
     1
 43
0.0
 10
2468.06
 20
88.94500000000001
 10
2468.06
 20
124.655
 10
2475.2
 20
131.8
 10
2489.49
 20
131.8
 10
2496.63
 20
124.655
 10
2496.63
 20
88.94500000000001
 10
2489.49
 20
81.8
 10
2475.2
 20
81.8
 10
2468.06
 20
88.94500000000001
  0
LWPOLYLINE
  5
69
330
1F
100
AcDbEntity
  8
text2
100
AcDbPolyline
 90
        9
 70
     1
 43
0.0
 10
2518.06
 20
88.94500000000001
 10
2518.06
 20
124.655
 10
2525.2
 20
131.8
 10
2539.49
 20
131.8
 10
2546.63
 20
124.655
 10
2546.63
 20
88.94500000000001
 10
2539.49
 20
81.8
 10
2525.2
 20
81.8
 10
2518.06
 20
88.94500000000001
  0
LWPOLYLINE
  5
6A
330
1F
100
AcDbEntity
  8
text2
100
AcDbPolyline
 90
       11
 70
     1
 43
0.0
 10
2585.915
 20
88.94500000000001
 10
2593.06
 20
88.94500000000001
 10
2593.06
 20
81.8
 10
2571.63
 20
81.8
 10
2571.63
 20
88.94500000000001
 10
2578.775
 20
88.94500000000001
 10
2578.775
 20
124.655
 10
2571.63
 20
124.655
 10
2578.775
 20
131.8
 10
2585.915
 20
131.8
 10
2585.915
 20
88.94500000000001
  0
LWPOLYLINE
  5
6B
330
1F
100
AcDbEntity
  8
text2
100
AcDbPolyline
 90
       19
 70
     1
 43
0.0
 10
2614.49
 20
131.8
 10
2650.2
 20
131.8
 10
2650.2
 20
124.655
 10
2621.63
 20
124.655
 10
2621.63
 20
113.945
 10
2643.06
 20
113.945
 10
2650.2
 20
106.8
 10
2650.2
 20
88.94500000000001
 10
2643.06
 20
81.8
 10
2621.63
 20
81.8
 10
2614.49
 20
88.94500000000001
 10
2621.63
 20
92.515
 10
2625.2
 20
88.94500000000001
 10
2639.49
 20
88.94500000000001
 10
2643.06
 20
92.515
 10
2643.06
 20
103.23
 10
2639.49
 20
106.8
 10
2614.49
 20
106.8
 10
2614.49
 20
131.8
  0
LWPOLYLINE
  5
6C
330
1F
100
AcDbEntity
  8
text2
100
AcDbPolyline
 90
        9
 70
     1
 43
0.0
 10
72.285
 20
1957.0
 10
72.285
 20
2007.0
 10
100.86
 20
2007.0
 10
108.0
 20
1999.855
 10
108.0
 20
1985.57
 10
100.86
 20
1978.43
 10
79.43
 20
1978.43
 10
79.43
 20
1957.0
 10
72.285
 20
1957.0
  0
LWPOLYLINE
  5
6D
330
1F
100
AcDbEntity
  8
text2
100
AcDbPolyline
 90
        9
 70
     1
 43
0.0
 10
89.86
 20
2764.145
 10
89.86
 20
2814.145
 10
118.43
 20
2814.145
 10
125.57
 20
2807.0
 10
125.57
 20
2792.715
 10
118.43
 20
2785.575
 10
97.0
 20
2785.575
 10
97.0
 20
2764.145
 10
89.86
 20
2764.145
  0
LWPOLYLINE
  5
6E
330
1F
100
AcDbEntity
  8
text2
100
AcDbPolyline
 90
        4
 70
     1
 43
0.0
 10
93.2
 20
766.9
 10
93.2
 20
861.9
 10
188.2
 20
861.9
 10
188.2
 20
766.9
  0
LWPOLYLINE
  5
6F
330
1F
100
AcDbEntity
  8
text2
100
AcDbPolyline
 90
        4
 70
     1
 43
0.0
 10
93.2
 20
2076.9
 10
93.2
 20
2171.9
 10
188.2
 20
2171.9
 10
188.2
 20
2076.9
  0
LWPOLYLINE
  5
70
330
1F
100
AcDbEntity
  8
text2
100
AcDbPolyline
 90
       11
 70
     1
 43
0.0
 10
103.67
 20
1914.945
 10
107.242
 20
1914.945
 10
107.242
 20
1911.372
 10
96.528
 20
1911.372
 10
96.528
 20
1914.945
 10
100.1
 20
1914.945
 10
100.1
 20
1932.8
 10
96.528
 20
1932.8
 10
100.1
 20
1936.372
 10
103.67
 20
1936.372
 10
103.67
 20
1914.945
  0
LWPOLYLINE
  5
71
330
1F
100
AcDbEntity
  8
text2
100
AcDbPolyline
 90
       19
 70
     1
 43
0.0
 10
122.29
 20
2007.0
 10
158.0
 20
2007.0
 10
158.0
 20
1999.855
 10
129.43
 20
1999.855
 10
129.43
 20
1989.145
 10
150.86
 20
1989.145
 10
158.0
 20
1982.0
 10
158.0
 20
1964.145
 10
150.86
 20
1957.0
 10
129.43
 20
1957.0
 10
122.29
 20
1964.145
 10
129.43
 20
1967.715
 10
133.0
 20
1964.145
 10
147.29
 20
1964.145
 10
150.86
 20
1967.715
 10
150.86
 20
1978.43
 10
147.29
 20
1982.0
 10
122.29
 20
1982.0
 10
122.29
 20
2007.0
  0
LWPOLYLINE
  5
72
330
1F
100
AcDbEntity
  8
text2
100
AcDbPolyline
 90
       11
 70
     1
 43
0.0
 10
161.285
 20
2771.29
 10
168.43
 20
2771.29
 10
168.43
 20
2764.145
 10
147.0
 20
2764.145
 10
147.0
 20
2771.29
 10
154.145
 20
2771.29
 10
154.145
 20
2807.0
 10
147.0
 20
2807.0
 10
154.145
 20
2814.145
 10
161.285
 20
2814.145
 10
161.285
 20
2771.29
  0
LWPOLYLINE
  5
73
330
1F
100
AcDbEntity
  8
text2
100
AcDbPolyline
 90
       13
 70
     1
 43
0.0
 10
175.801
 20
1954.524
 10
175.801
 20
1958.097
 10
179.373
 20
1958.097
 10
179.373
 20
1975.952
 10
175.801
 20
1975.952
 10
175.801
 20
1979.524
 10
186.515
 20
1979.524
 10
186.515
 20
1975.952
 10
182.943
 20
1975.952
 10
182.943
 20
1958.097
 10
186.515
 20
1958.097
 10
186.515
 20
1954.524
 10
175.801
 20
1954.524
  0
LWPOLYLINE
  5
74
330
1F
100
AcDbEntity
  8
text2
100
AcDbPolyline
 90
       11
 70
     1
 43
0.0
 10
197.23
 20
1954.524
 10
197.23
 20
1979.524
 10
213.3
 20
1979.524
 10
213.3
 20
1975.952
 10
200.801
 20
1975.952
 10
200.801
 20
1968.809
 10
207.943
 20
1968.809
 10
207.943
 20
1965.239
 10
200.801
 20
1965.239
 10
200.801
 20
1954.524
 10
197.23
 20
1954.524
  0
LWPOLYLINE
  5
75
330
1F
100
AcDbEntity
  8
text2
100
AcDbPolyline
 90
        9
 70
     1
 43
0.0
 10
247.23
 20
1958.097
 10
247.23
 20
1975.952
 10
250.801
 20
1979.524
 10
261.515
 20
1979.524
 10
265.085
 20
1975.952
 10
265.085
 20
1958.097
 10
261.515
 20
1954.524
 10
250.801
 20
1954.524
 10
247.23
 20
1958.097
  0
LWPOLYLINE
  5
76
330
1F
100
AcDbEntity
  8
text2
100
AcDbPolyline
 90
       13
 70
     1
 43
0.0
 10
286.515
 20
1979.524
 10
290.086
 20
1979.524
 10
290.086
 20
1958.097
 10
286.515
 20
1954.524
 10
275.801
 20
1954.524
 10
272.23
 20
1958.097
 10
272.23
 20
1979.524
 10
275.801
 20
1979.524
 10
275.801
 20
1959.881
 10
277.586
 20
1958.097
 10
284.73
 20
1958.097
 10
286.515
 20
1959.881
 10
286.515
 20
1979.524
  0
LWPOLYLINE
  5
77
330
1F
100
AcDbEntity
  8
text2
100
AcDbPolyline
 90
        9
 70
     1
 43
0.0
 10
304.373
 20
1954.524
 10
304.373
 20
1975.952
 10
297.231
 20
1975.952
 10
297.231
 20
1979.524
 10
315.086
 20
1979.524
 10
315.086
 20
1975.952
 10
307.943
 20
1975.952
 10
307.943
 20
1954.524
 10
304.373
 20
1954.524
  0
LWPOLYLINE
  5
78
330
1F
100
AcDbEntity
  8
text2
100
AcDbPolyline
 90
        4
 70
     1
 43
0.0
 10
363.5
 20
1407.5
 10
363.5
 20
1502.5
 10
458.5
 20
1502.5
 10
458.5
 20
1407.5
  0
LWPOLYLINE
  5
79
330
1F
100
AcDbEntity
  8
text2
100
AcDbPolyline
 90
        4
 70
     1
 43
0.0
 10
393.2
 20
766.9
 10
393.2
 20
861.9
 10
488.2
 20
861.9
 10
488.2
 20
766.9
  0
LWPOLYLINE
  5
7A
330
1F
100
AcDbEntity
  8
text2
100
AcDbPolyline
 90
        4
 70
     1
 43
0.0
 10
393.2
 20
2006.9
 10
393.2
 20
2101.9
 10
488.2
 20
2101.9
 10
488.2
 20
2006.9
  0
LWPOLYLINE
  5
7B
330
1F
100
AcDbEntity
  8
text2
100
AcDbPolyline
 90
       11
 70
     1
 43
0.0
 10
435.57
 20
2796.145
 10
439.142
 20
2796.145
 10
439.142
 20
2792.572
 10
428.428
 20
2792.572
 10
428.428
 20
2796.145
 10
432.0
 20
2796.145
 10
432.0
 20
2814.0
 10
428.428
 20
2814.0
 10
432.0
 20
2817.572
 10
435.57
 20
2817.572
 10
435.57
 20
2796.145
  0
LWPOLYLINE
  5
7C
330
1F
100
AcDbEntity
  8
text2
100
AcDbPolyline
 90
        7
 70
     1
 43
0.0
 10
506.286
 20
2864.216
 10
520.571
 20
2864.216
 10
520.571
 20
2860.643
 10
502.716
 20
2860.643
 10
502.716
 20
2885.643
 10
506.286
 20
2885.643
 10
506.286
 20
2864.216
  0
LWPOLYLINE
  5
7D
330
1F
100
AcDbEntity
  8
text2
100
AcDbPolyline
 90
        9
 70
     1
 43
0.0
 10
527.715
 20
2864.216
 10
527.715
 20
2882.071
 10
531.2860000000001
 20
2885.643
 10
542.0
 20
2885.643
 10
545.57
 20
2882.071
 10
545.57
 20
2864.216
 10
542.0
 20
2860.643
 10
531.2860000000001
 20
2860.643
 10
527.715
 20
2864.216
  0
LWPOLYLINE
  5
7E
330
1F
100
AcDbEntity
  8
text2
100
AcDbPolyline
 90
       13
 70
     1
 43
0.0
 10
581.2860000000001
 20
2860.643
 10
581.2860000000001
 20
2864.216
 10
584.8580000000001
 20
2864.216
 10
584.8580000000001
 20
2882.071
 10
581.2860000000001
 20
2882.071
 10
581.2860000000001
 20
2885.643
 10
592.0
 20
2885.643
 10
592.0
 20
2882.071
 10
588.428
 20
2882.071
 10
588.428
 20
2864.216
 10
592.0
 20
2864.216
 10
592.0
 20
2860.643
 10
581.2860000000001
 20
2860.643
  0
LWPOLYLINE
  5
7F
330
1F
100
AcDbEntity
  8
text2
100
AcDbPolyline
 90
       11
 70
     1
 43
0.0
 10
602.715
 20
2860.643
 10
602.715
 20
2885.643
 10
608.071
 20
2885.643
 10
617.0
 20
2866.0
 10
617.0
 20
2885.643
 10
620.571
 20
2885.643
 10
620.571
 20
2860.643
 10
615.215
 20
2860.643
 10
606.2860000000001
 20
2880.286
 10
606.2860000000001
 20
2860.643
 10
602.715
 20
2860.643
  0
LWPOLYLINE
  5
80
330
1F
100
AcDbEntity
  8
text2
100
AcDbPolyline
 90
        4
 70
     1
 43
0.0
 10
663.5
 20
1407.5
 10
663.5
 20
1502.5
 10
758.5
 20
1502.5
 10
758.5
 20
1407.5
  0
LWPOLYLINE
  5
81
330
1F
100
AcDbEntity
  8
text2
100
AcDbPolyline
 90
        4
 70
     1
 43
0.0
 10
693.2
 20
766.9
 10
693.2
 20
861.9
 10
788.2
 20
861.9
 10
788.2
 20
766.9
  0
LWPOLYLINE
  5
82
330
1F
100
AcDbEntity
  8
text2
100
AcDbPolyline
 90
        4
 70
     1
 43
0.0
 10
693.2
 20
2006.9
 10
693.2
 20
2101.9
 10
788.2
 20
2101.9
 10
788.2
 20
2006.9
  0
LWPOLYLINE
  5
83
330
1F
100
AcDbEntity
  8
text2
100
AcDbPolyline
 90
        4
 70
     1
 43
0.0
 10
963.5
 20
1407.5
 10
963.5
 20
1502.5
 10
1058.5
 20
1502.5
 10
1058.5
 20
1407.5
  0
LWPOLYLINE
  5
84
330
1F
100
AcDbEntity
  8
text2
100
AcDbPolyline
 90
        4
 70
     1
 43
0.0
 10
993.2
 20
2006.9
 10
993.2
 20
2101.9
 10
1088.2
 20
2101.9
 10
1088.2
 20
2006.9
  0
LWPOLYLINE
  5
85
330
1F
100
AcDbEntity
  8
text2
100
AcDbPolyline
 90
       11
 70
     1
 43
0.0
 10
1112.87
 20
79.772
 10
1116.442
 20
79.772
 10
1116.442
 20
76.199
 10
1105.728
 20
76.199
 10
1105.728
 20
79.772
 10
1109.3
 20
79.772
 10
1109.3
 20
97.627
 10
1105.728
 20
97.627
 10
1109.3
 20
101.199
 10
1112.87
 20
101.199
 10
1112.87
 20
79.772
  0
LWPOLYLINE
  5
86
330
1F
100
AcDbEntity
  8
text2
100
AcDbPolyline
 90
        4
 70
     1
 43
0.0
 10
1139.0
 20
66.0
 10
1139.0
 20
161.0
 10
1234.0
 20
161.0
 10
1234.0
 20
66.0
  0
LWPOLYLINE
  5
87
330
1F
100
AcDbEntity
  8
text2
100
AcDbPolyline
 90
        4
 70
     1
 43
0.0
 10
1289.0
 20
66.0
 10
1289.0
 20
161.0
 10
1384.0
 20
161.0
 10
1384.0
 20
66.0
  0
LWPOLYLINE
  5
88
330
1F
100
AcDbEntity
  8
text2
100
AcDbPolyline
 90
        4
 70
     1
 43
0.0
 10
1293.2
 20
2006.9
 10
1293.2
 20
2101.9
 10
1388.2
 20
2101.9
 10
1388.2
 20
2006.9
  0
LWPOLYLINE
  5
89
330
1F
100
AcDbEntity
  8
text2
100
AcDbPolyline
 90
        9
 70
     1
 43
0.0
 10
1423.785
 20
2871.545
 10
1423.785
 20
2921.545
 10
1452.355
 20
2921.545
 10
1459.495
 20
2914.4
 10
1459.495
 20
2900.115
 10
1452.355
 20
2892.975
 10
1430.925
 20
2892.975
 10
1430.925
 20
2871.545
 10
1423.785
 20
2871.545
  0
LWPOLYLINE
  5
8A
330
1F
100
AcDbEntity
  8
text2
100
AcDbPolyline
 90
        4
 70
     1
 43
0.0
 10
1438.0
 20
65.0
 10
1438.0
 20
162.0
 10
1535.0
 20
162.0
 10
1535.0
 20
65.0
  0
LWPOLYLINE
  5
8B
330
1F
100
AcDbEntity
  8
text2
100
AcDbPolyline
 90
       16
 70
     1
 43
0.0
 10
1473.785
 20
2871.545
 10
1473.785
 20
2882.26
 10
1502.355
 20
2903.69
 10
1502.355
 20
2910.83
 10
1498.785
 20
2914.4
 10
1484.495
 20
2914.4
 10
1480.925
 20
2910.83
 10
1473.785
 20
2914.4
 10
1480.925
 20
2921.545
 10
1502.355
 20
2921.545
 10
1509.495
 20
2914.4
 10
1509.495
 20
2900.115
 10
1480.925
 20
2878.69
 10
1509.495
 20
2878.69
 10
1509.495
 20
2871.545
 10
1473.785
 20
2871.545
  0
LWPOLYLINE
  5
8C
330
1F
100
AcDbEntity
  8
text2
100
AcDbPolyline
 90
        4
 70
     1
 43
0.0
 10
1539.0
 20
2839.0
 10
1539.0
 20
2934.0
 10
1634.0
 20
2934.0
 10
1634.0
 20
2839.0
  0
LWPOLYLINE
  5
8D
330
1F
100
AcDbEntity
  8
text2
100
AcDbPolyline
 90
        4
 70
     1
 43
0.0
 10
1588.0
 20
65.0
 10
1588.0
 20
208.0
 10
1685.0
 20
208.0
 10
1685.0
 20
65.0
  0
LWPOLYLINE
  5
8E
330
1F
100
AcDbEntity
  8
text2
100
AcDbPolyline
 90
        4
 70
     1
 43
0.0
 10
1593.2
 20
2006.9
 10
1593.2
 20
2101.9
 10
1688.2
 20
2101.9
 10
1688.2
 20
2006.9
  0
LWPOLYLINE
  5
8F
330
1F
100
AcDbEntity
  8
text2
100
AcDbPolyline
 90
        4
 70
     1
 43
0.0
 10
1689.0
 20
2839.0
 10
1689.0
 20
2934.0
 10
1784.0
 20
2934.0
 10
1784.0
 20
2839.0
  0
LWPOLYLINE
  5
90
330
1F
100
AcDbEntity
  8
text2
100
AcDbPolyline
 90
        4
 70
     1
 43
0.0
 10
1738.0
 20
65.0
 10
1738.0
 20
162.0
 10
1835.0
 20
162.0
 10
1835.0
 20
65.0
  0
LWPOLYLINE
  5
91
330
1F
100
AcDbEntity
  8
text2
100
AcDbPolyline
 90
        4
 70
     1
 43
0.0
 10
1839.0
 20
2839.0
 10
1839.0
 20
2934.0
 10
1934.0
 20
2934.0
 10
1934.0
 20
2839.0
  0
LWPOLYLINE
  5
92
330
1F
100
AcDbEntity
  8
text2
100
AcDbPolyline
 90
        4
 70
     1
 43
0.0
 10
1888.0
 20
65.0
 10
1888.0
 20
162.0
 10
1985.0
 20
162.0
 10
1985.0
 20
65.0
  0
LWPOLYLINE
  5
93
330
1F
100
AcDbEntity
  8
text2
100
AcDbPolyline
 90
        4
 70
     1
 43
0.0
 10
1893.2
 20
2006.9
 10
1893.2
 20
2101.9
 10
1988.2
 20
2101.9
 10
1988.2
 20
2006.9
  0
LWPOLYLINE
  5
94
330
1F
100
AcDbEntity
  8
text2
100
AcDbPolyline
 90
        4
 70
     1
 43
0.0
 10
1989.0
 20
2839.0
 10
1989.0
 20
2934.0
 10
2084.0
 20
2934.0
 10
2084.0
 20
2839.0
  0
LWPOLYLINE
  5
95
330
1F
100
AcDbEntity
  8
text2
100
AcDbPolyline
 90
        4
 70
     1
 43
0.0
 10
2038.0
 20
65.0
 10
2038.0
 20
162.0
 10
2135.0
 20
162.0
 10
2135.0
 20
65.0
  0
LWPOLYLINE
  5
96
330
1F
100
AcDbEntity
  8
text2
100
AcDbPolyline
 90
        4
 70
     1
 43
0.0
 10
2139.0
 20
2839.0
 10
2139.0
 20
2934.0
 10
2234.0
 20
2934.0
 10
2234.0
 20
2839.0
  0
LWPOLYLINE
  5
97
330
1F
100
AcDbEntity
  8
text2
100
AcDbPolyline
 90
        4
 70
     1
 43
0.0
 10
2289.0
 20
2839.0
 10
2289.0
 20
2934.0
 10
2384.0
 20
2934.0
 10
2384.0
 20
2839.0
  0
LWPOLYLINE
  5
98
330
1F
100
AcDbEntity
  8
text2
100
AcDbPolyline
 90
        4
 70
     1
 43
0.0
 10
2439.0
 20
2839.0
 10
2439.0
 20
2934.0
 10
2534.0
 20
2934.0
 10
2534.0
 20
2839.0
  0
LWPOLYLINE
  5
99
330
1F
100
AcDbEntity
  8
text2
100
AcDbPolyline
 90
        4
 70
     1
 43
0.0
 10
2589.0
 20
2839.0
 10
2589.0
 20
2934.0
 10
2684.0
 20
2934.0
 10
2684.0
 20
2839.0
  0
LWPOLYLINE
  5
9A
330
1F
100
AcDbEntity
  8
text2
100
AcDbPolyline
 90
        4
 70
     1
 43
0.0
 10
2715.716
 20
84.32600000000001
 10
2715.716
 20
208.826
 10
2913.216
 20
208.826
 10
2913.216
 20
84.32600000000001
  0
LWPOLYLINE
  5
9B
330
1F
100
AcDbEntity
  8
text2
100
AcDbPolyline
 90
        4
 70
     1
 43
0.0
 10
2739.0
 20
2839.0
 10
2739.0
 20
2934.0
 10
2834.0
 20
2934.0
 10
2834.0
 20
2839.0
  0
LWPOLYLINE
  5
9C
330
1F
100
AcDbEntity
  8
text2
100
AcDbPolyline
 90
       13
 70
     1
 43
0.0
 10
2806.112
 20
820.59
 10
2806.112
 20
845.59
 10
2820.396
 20
845.59
 10
2823.967
 20
842.018
 10
2823.967
 20
834.875
 10
2820.396
 20
831.3050000000001
 10
2815.039
 20
831.3050000000001
 10
2823.967
 20
822.376
 10
2823.967
 20
820.59
 10
2820.396
 20
820.59
 10
2809.682
 20
831.3050000000001
 10
2809.682
 20
820.59
 10
2806.112
 20
820.59
  0
LWPOLYLINE
  5
9D
330
1F
100
AcDbEntity
  8
text2
100
AcDbPolyline
 90
        9
 70
     1
 43
0.0
 10
2825.0
 20
610.2
 10
2825.0
 20
645.2
 10
2835.0
 20
645.2
 10
2865.0
 20
657.7
 10
2935.0
 20
657.7
 10
2935.0
 20
597.7
 10
2865.0
 20
597.7
 10
2835.0
 20
610.2
 10
2825.0
 20
610.2
  0
LWPOLYLINE
  5
9E
330
1F
100
AcDbEntity
  8
text2
100
AcDbPolyline
 90
       11
 70
     1
 43
0.0
 10
2831.111
 20
820.59
 10
2831.111
 20
845.59
 10
2847.181
 20
845.59
 10
2847.181
 20
842.018
 10
2834.682
 20
842.018
 10
2834.682
 20
834.875
 10
2841.824
 20
834.875
 10
2841.824
 20
831.3050000000001
 10
2834.682
 20
831.3050000000001
 10
2834.682
 20
820.59
 10
2831.111
 20
820.59
  0
LWPOLYLINE
  5
9F
330
1F
100
AcDbEntity
  8
text2
100
AcDbPolyline
 90
        9
 70
     1
 43
0.0
 10
2839.717
 20
860.696
 10
2839.717
 20
910.696
 10
2868.287
 20
910.696
 10
2875.427
 20
903.551
 10
2875.427
 20
889.266
 10
2868.287
 20
882.126
 10
2846.857
 20
882.126
 10
2846.857
 20
860.696
 10
2839.717
 20
860.696
  0
LWPOLYLINE
  5
A0
330
1F
100
AcDbEntity
  8
text2
100
AcDbPolyline
 90
       26
 70
     1
 43
0.0
 10
2852.3
 20
714.2
 10
2853.1
 20
719.6
 10
2855.7
 20
724.6
 10
2859.6
 20
728.5
 10
2864.5
 20
731.0
 10
2869.1
 20
731.7
 10
2877.5
 20
731.7
 10
2900.0
 20
766.9
 10
2900.0
 20
775.2
 10
2900.7
 20
779.8000000000001
 10
2903.2
 20
784.7
 10
2907.1
 20
788.6
 10
2912.1
 20
791.1
 10
2917.5
 20
792.0
 10
2922.9
 20
791.2
 10
2927.9
 20
788.6
 10
2931.8
 20
784.7
 10
2934.3
 20
779.8000000000001
 10
2935.0
 20
775.2
 10
2935.0
 20
696.7
 10
2869.1
 20
696.7
 10
2864.5
 20
697.4
 10
2859.6
 20
699.9
 10
2855.7
 20
703.8000000000001
 10
2853.2
 20
708.8000000000001
 10
2852.3
 20
714.2
  0
LWPOLYLINE
  5
A1
330
1F
100
AcDbEntity
  8
text2
100
AcDbPolyline
 90
       11
 70
     1
 43
0.0
 10
2865.742
 20
472.873
 10
2869.314
 20
472.873
 10
2869.314
 20
469.3
 10
2858.6
 20
469.3
 10
2858.6
 20
472.873
 10
2862.172
 20
472.873
 10
2862.172
 20
490.728
 10
2858.6
 20
490.728
 10
2862.172
 20
494.3
 10
2865.742
 20
494.3
 10
2865.742
 20
472.873
  0
LWPOLYLINE
  5
A2
330
1F
100
AcDbEntity
  8
text2
100
AcDbPolyline
 90
       11
 70
     1
 43
0.0
 10
2865.842
 20
2851.873
 10
2869.414
 20
2851.873
 10
2869.414
 20
2848.3
 10
2858.7
 20
2848.3
 10
2858.7
 20
2851.873
 10
2862.272
 20
2851.873
 10
2862.272
 20
2869.728
 10
2858.7
 20
2869.728
 10
2862.272
 20
2873.3
 10
2865.842
 20
2873.3
 10
2865.842
 20
2851.873
  0
LWPOLYLINE
  5
A3
330
1F
100
AcDbEntity
  8
text2
100
AcDbPolyline
 90
       13
 70
     1
 43
0.0
 10
2884.682
 20
820.59
 10
2884.682
 20
824.163
 10
2888.254
 20
824.163
 10
2888.254
 20
842.018
 10
2884.682
 20
842.018
 10
2884.682
 20
845.59
 10
2895.396
 20
845.59
 10
2895.396
 20
842.018
 10
2891.824
 20
842.018
 10
2891.824
 20
824.163
 10
2895.396
 20
824.163
 10
2895.396
 20
820.59
 10
2884.682
 20
820.59
  0
LWPOLYLINE
  5
A4
330
1F
100
AcDbEntity
  8
text2
100
AcDbPolyline
 90
       26
 70
     1
 43
0.0
 10
2900.0
 20
480.2
 10
2900.0
 20
488.5
 10
2877.5
 20
523.7
 10
2869.1
 20
523.7
 10
2864.5
 20
524.4
 10
2859.6
 20
526.9
 10
2855.7
 20
530.8
 10
2853.1
 20
535.8
 10
2852.3
 20
541.2
 10
2853.2
 20
546.6
 10
2855.7
 20
551.6
 10
2859.6
 20
555.5
 10
2864.5
 20
558.0
 10
2869.1
 20
558.7
 10
2935.0
 20
558.7
 10
2935.0
 20
480.2
 10
2934.3
 20
475.6
 10
2931.8
 20
470.7
 10
2927.9
 20
466.8
 10
2922.9
 20
464.2
 10
2917.5
 20
463.4
 10
2912.1
 20
464.3
 10
2907.1
 20
466.8
 10
2903.2
 20
470.7
 10
2900.7
 20
475.6
 10
2900.0
 20
480.2
  0
LWPOLYLINE
  5
A5
330
1F
100
AcDbEntity
  8
text2
100
AcDbPolyline
 90
       11
 70
     1
 43
0.0
 10
2906.111
 20
820.59
 10
2906.111
 20
845.59
 10
2911.467
 20
845.59
 10
2920.396
 20
825.947
 10
2920.396
 20
845.59
 10
2923.967
 20
845.59
 10
2923.967
 20
820.59
 10
2918.611
 20
820.59
 10
2909.682
 20
840.2330000000001
 10
2909.682
 20
820.59
 10
2906.111
 20
820.59
  0
LWPOLYLINE
  5
A6
330
1F
100
AcDbEntity
  8
text2
100
AcDbPolyline
 90
       26
 70
     1
 43
0.0
 10
2918.287
 20
910.696
 10
2925.427
 20
903.551
 10
2925.427
 20
892.841
 10
2918.287
 20
885.696
 10
2925.427
 20
878.551
 10
2925.427
 20
867.841
 10
2918.287
 20
860.696
 10
2896.857
 20
860.696
 10
2889.717
 20
867.841
 10
2896.857
 20
871.4110000000001
 10
2900.427
 20
867.841
 10
2914.717
 20
867.841
 10
2918.287
 20
871.4110000000001
 10
2918.287
 20
874.981
 10
2911.142
 20
882.126
 10
2904.002
 20
882.126
 10
2904.002
 20
889.266
 10
2911.142
 20
889.266
 10
2918.287
 20
896.4110000000001
 10
2918.287
 20
899.981
 10
2914.717
 20
903.551
 10
2900.427
 20
903.551
 10
2896.857
 20
899.981
 10
2889.717
 20
903.551
 10
2896.857
 20
910.696
 10
2918.287
 20
910.696
  0
LWPOLYLINE
  5
A7
330
1F
100
AcDbEntity
  8
text2
100
AcDbPolyline
 90
       27
 70
     1
 43
0.0
 10
83.10000000000001
 20
2912.1
 10
82.2
 20
2917.5
 10
83.0
 20
2922.9
 10
85.60000000000001
 20
2927.9
 10
89.5
 20
2931.8
 10
94.4
 20
2934.3
 10
99.0
 20
2935.0
 10
217.5
 20
2935.0
 10
217.5
 20
2822.7
 10
216.8
 20
2818.1
 10
214.3
 20
2813.2
 10
210.4
 20
2809.3
 10
205.4
 20
2806.8
 10
200.0
 20
2805.9
 10
194.6
 20
2806.7
 10
189.6
 20
2809.3
 10
185.7
 20
2813.2
 10
183.2
 20
2818.1
 10
182.5
 20
2822.7
 10
182.5
 20
2831.1
 10
107.3
 20
2831.1
 10
107.3
 20
2900.0
 10
99.0
 20
2900.0
 10
94.4
 20
2900.7
 10
89.5
 20
2903.2
 10
85.60000000000001
 20
2907.1
 10
83.10000000000001
 20
2912.1
  0
LWPOLYLINE
  5
A8
330
1F
100
AcDbEntity
  8
text2
100
AcDbPolyline
 90
       27
 70
     1
 43
0.0
 10
356.2
 20
2818.1
 10
355.5
 20
2822.7
 10
355.5
 20
2935.0
 10
474.0
 20
2935.0
 10
478.6
 20
2934.3
 10
483.5
 20
2931.8
 10
487.4
 20
2927.9
 10
490.0
 20
2922.9
 10
490.8
 20
2917.5
 10
489.9
 20
2912.1
 10
487.4
 20
2907.1
 10
483.5
 20
2903.2
 10
478.6
 20
2900.7
 10
474.0
 20
2900.0
 10
465.7
 20
2900.0
 10
465.7
 20
2831.1
 10
390.5
 20
2831.1
 10
390.5
 20
2822.7
 10
389.8
 20
2818.1
 10
387.3
 20
2813.2
 10
383.4
 20
2809.3
 10
378.4
 20
2806.7
 10
373.0
 20
2805.9
 10
367.6
 20
2806.8
 10
362.6
 20
2809.3
 10
358.7
 20
2813.2
 10
356.2
 20
2818.1
  0
LWPOLYLINE
  5
A9
330
1F
100
AcDbEntity
  8
text2
100
AcDbPolyline
 90
        8
 70
     1
 43
0.0
 10
304.0
 20
2779.4
 10
269.0
 20
2779.4
 10
269.0
 20
2788.6
 10
256.5
 20
2818.6
 10
256.5
 20
2935.0
 10
316.5
 20
2935.0
 10
316.5
 20
2818.6
 10
304.0
 20
2788.6
  0
LWPOLYLINE
  5
AA
330
1F
100
AcDbEntity
  8
text2
100
AcDbPolyline
 90
        4
 70
     1
 43
0.0
 10
67.3
 20
1539.4
 10
67.3
 20
1614.4
 10
142.5
 20
1614.4
 10
142.5
 20
1539.4
  0
LWPOLYLINE
  5
AB
330
1F
100
AcDbEntity
  8
text2
100
AcDbPolyline
 90
        4
 70
     1
 43
0.0
 10
67.5
 20
1039.4
 10
67.5
 20
1114.4
 10
142.5
 20
1114.4
 10
142.5
 20
1039.4
  0
LWPOLYLINE
  5
AC
330
1F
100
AcDbEntity
  8
text2
100
AcDbPolyline
 90
        4
 70
     1
 43
0.0
 10
67.5
 20
1164.4
 10
67.5
 20
1239.4
 10
142.5
 20
1239.4
 10
142.5
 20
1164.4
  0
LWPOLYLINE
  5
AD
330
1F
100
AcDbEntity
  8
text2
100
AcDbPolyline
 90
        4
 70
     1
 43
0.0
 10
67.5
 20
1289.4
 10
67.5
 20
1364.4
 10
142.5
 20
1364.4
 10
142.5
 20
1289.4
  0
LWPOLYLINE
  5
AE
330
1F
100
AcDbEntity
  8
text2
100
AcDbPolyline
 90
        4
 70
     1
 43
0.0
 10
67.5
 20
1414.4
 10
67.5
 20
1489.4
 10
142.5
 20
1489.4
 10
142.5
 20
1414.4
  0
LWPOLYLINE
  5
AF
330
1F
100
AcDbEntity
  8
text2
100
AcDbPolyline
 90
        4
 70
     1
 43
0.0
 10
67.5
 20
1664.4
 10
67.5
 20
1739.4
 10
142.5
 20
1739.4
 10
142.5
 20
1664.4
  0
LWPOLYLINE
  5
B0
330
1F
100
AcDbEntity
  8
text2
100
AcDbPolyline
 90
        4
 70
     1
 43
0.0
 10
67.5
 20
1789.4
 10
67.5
 20
1864.4
 10
142.5
 20
1864.4
 10
142.5
 20
1789.4
  0
ENDSEC
  0
SECTION
  2
OBJECTS
  0
DICTIONARY
  5
C
330
0
100
AcDbDictionary
281
     1
  3
ACAD_GROUP
350
D
  3
ACAD_LAYOUT
350
1A
  3
ACAD_MLEADERSTYLE
350
B2
  3
ACAD_MLINESTYLE
350
17
  3
ACAD_PLOTSETTINGS
350
19
  3
ACAD_PLOTSTYLENAME
350
E
  3
ACAD_SCALELIST
350
3B
  3
ACAD_TABLESTYLE
350
B1
  3
ACAD_VISUALSTYLE
350
2A
  0
DICTIONARY
  5
D
102
{ACAD_REACTORS
330
C
102
}
330
C
100
AcDbDictionary
281
     1
  0
DICTIONARY
  5
1A
102
{ACAD_REACTORS
330
C
102
}
330
C
100
AcDbDictionary
281
     1
  3
Layout1
350
1E
  3
Layout2
350
26
  3
Model
350
22
  0
DICTIONARY
  5
B2
102
{ACAD_REACTORS
330
C
102
}
330
C
100
AcDbDictionary
281
     1
  0
DICTIONARY
  5
17
102
{ACAD_REACTORS
330
C
102
}
330
C
100
AcDbDictionary
281
     1
  3
Standard
350
18
  0
DICTIONARY
  5
19
102
{ACAD_REACTORS
330
C
102
}
330
C
100
AcDbDictionary
281
     1
  0
ACDBDICTIONARYWDFLT
  5
E
102
{ACAD_REACTORS
330
C
102
}
330
C
100
AcDbDictionary
281
     1
  3
Normal
350
F
100
AcDbDictionaryWithDefault
340
F
  0
DICTIONARY
  5
3B
102
{ACAD_REACTORS
330
C
102
}
330
C
100
AcDbDictionary
281
     1
  3
A0
350
3C
  3
A1
350
3D
  3
A2
350
3E
  3
A3
350
3F
  3
A4
350
40
  3
A5
350
41
  3
A6
350
42
  3
A7
350
43
  3
A8
350
44
  3
A9
350
45
  3
B0
350
46
  3
B1
350
47
  3
B2
350
48
  3
B3
350
49
  3
B4
350
4A
  3
B5
350
4B
  3
B6
350
4C
  3
B7
350
4D
  3
B8
350
4E
  3
B9
350
4F
  3
C0
350
50
  3
C1
350
51
  3
C2
350
52
  3
C3
350
53
  3
C4
350
54
  3
C5
350
55
  3
C6
350
56
  3
C7
350
57
  3
C8
350
58
  3
C9
350
59
  3
D0
350
5A
  3
D1
350
5B
  3
D2
350
5C
  0
DICTIONARY
  5
B1
102
{ACAD_REACTORS
330
C
102
}
330
C
100
AcDbDictionary
281
     1
  0
DICTIONARY
  5
2A
102
{ACAD_REACTORS
330
C
102
}
330
C
100
AcDbDictionary
281
     1
  3
2dWireframe
350
2F
  3
3D Hidden
350
31
  3
3dWireframe
350
30
  3
Basic
350
32
  3
Brighten
350
36
  3
ColorChange
350
3A
  3
Conceptual
350
34
  3
Dim
350
35
  3
Facepattern
350
39
  3
Flat
350
2B
  3
FlatWithEdges
350
2C
  3
Gouraud
350
2D
  3
GouraudWithEdges
350
2E
  3
Linepattern
350
38
  3
Realistic
350
33
  3
Thicken
350
37
  0
LAYOUT
  5
1E
102
{ACAD_REACTORS
330
1A
102
}
330
1A
100
AcDbPlotSettings
  1

  2
none_device
  4

  6

 40
0.0
 41
0.0
 42
0.0
 43
0.0
 44
0.0
 45
0.0
 46
0.0
 47
0.0
 48
0.0
 49
0.0
140
0.0
141
0.0
142
1.0
143
1.0
 70
   688
 72
     0
 73
     0
 74
     5
  7

 75
    16
 76
     0
 77
     2
 78
   300
147
1.0
148
0.0
149
0.0
100
AcDbLayout
  1
Layout1
 70
     1
 71
     1
 10
0.0
 20
0.0
 11
12.0
 21
9.0
 12
0.0
 22
0.0
 32
0.0
 14
1.000000000000000E+20
 24
1.000000000000000E+20
 34
1.000000000000000E+20
 15
-1.000000000000000E+20
 25
-1.000000000000000E+20
 35
-1.000000000000000E+20
146
0.0
 13
0.0
 23
0.0
 33
0.0
 16
1.0
 26
0.0
 36
0.0
 17
0.0
 27
1.0
 37
0.0
 76
     0
330
1B
  0
LAYOUT
  5
26
102
{ACAD_REACTORS
330
1A
102
}
330
1A
100
AcDbPlotSettings
  1

  2
none_device
  4

  6

 40
0.0
 41
0.0
 42
0.0
 43
0.0
 44
0.0
 45
0.0
 46
0.0
 47
0.0
 48
0.0
 49
0.0
140
0.0
141
0.0
142
1.0
143
1.0
 70
   688
 72
     0
 73
     0
 74
     5
  7

 75
    16
 76
     0
 77
     2
 78
   300
147
1.0
148
0.0
149
0.0
100
AcDbLayout
  1
Layout2
 70
     1
 71
     2
 10
0.0
 20
0.0
 11
0.0
 21
0.0
 12
0.0
 22
0.0
 32
0.0
 14
0.0
 24
0.0
 34
0.0
 15
0.0
 25
0.0
 35
0.0
146
0.0
 13
0.0
 23
0.0
 33
0.0
 16
1.0
 26
0.0
 36
0.0
 17
0.0
 27
1.0
 37
0.0
 76
     0
330
23
  0
LAYOUT
  5
22
102
{ACAD_REACTORS
330
1A
102
}
330
1A
100
AcDbPlotSettings
  1

  2
none_device
  4

  6

 40
0.0
 41
0.0
 42
0.0
 43
0.0
 44
0.0
 45
0.0
 46
0.0
 47
0.0
 48
0.0
 49
0.0
140
0.0
141
0.0
142
1.0
143
1.0
 70
  1712
 72
     0
 73
     0
 74
     0
  7

 75
     0
 76
     0
 77
     2
 78
   300
147
1.0
148
0.0
149
0.0
100
AcDbLayout
  1
Model
 70
     1
 71
     0
 10
0.0
 20
0.0
 11
12.0
 21
9.0
 12
0.0
 22
0.0
 32
0.0
 14
1.000000000000000E+20
 24
1.000000000000000E+20
 34
1.000000000000000E+20
 15
-1.000000000000000E+20
 25
-1.000000000000000E+20
 35
-1.000000000000000E+20
146
0.0
 13
0.0
 23
0.0
 33
0.0
 16
1.0
 26
0.0
 36
0.0
 17
0.0
 27
1.0
 37
0.0
 76
     0
330
1F
331
29
  0
MLINESTYLE
  5
18
102
{ACAD_REACTORS
330
17
102
}
330
17
100
AcDbMlineStyle
  2
Standard
 70
     0
  3

 62
   256
 51
90.0
 52
90.0
 71
     2
 49
0.5
 62
   256
  6
BYLAYER
 49
-0.5
 62
   256
  6
BYLAYER
  0
ACDBPLACEHOLDER
  5
F
102
{ACAD_REACTORS
330
E
102
}
330
E
  0
SCALE
  5
3C
102
{ACAD_REACTORS
330
3B
102
}
330
3B
100
AcDbScale
 70
     0
300
1:1
140
1.0
141
1.0
290
     1
  0
SCALE
  5
3D
102
{ACAD_REACTORS
330
3B
102
}
330
3B
100
AcDbScale
 70
     0
300
1:2
140
1.0
141
2.0
290
     0
  0
SCALE
  5
3E
102
{ACAD_REACTORS
330
3B
102
}
330
3B
100
AcDbScale
 70
     0
300
1:4
140
1.0
141
4.0
290
     0
  0
SCALE
  5
3F
102
{ACAD_REACTORS
330
3B
102
}
330
3B
100
AcDbScale
 70
     0
300
1:5
140
1.0
141
5.0
290
     0
  0
SCALE
  5
40
102
{ACAD_REACTORS
330
3B
102
}
330
3B
100
AcDbScale
 70
     0
300
1:8
140
1.0
141
8.0
290
     0
  0
SCALE
  5
41
102
{ACAD_REACTORS
330
3B
102
}
330
3B
100
AcDbScale
 70
     0
300
1:10
140
1.0
141
10.0
290
     0
  0
SCALE
  5
42
102
{ACAD_REACTORS
330
3B
102
}
330
3B
100
AcDbScale
 70
     0
300
1:16
140
1.0
141
16.0
290
     0
  0
SCALE
  5
43
102
{ACAD_REACTORS
330
3B
102
}
330
3B
100
AcDbScale
 70
     0
300
1:20
140
1.0
141
20.0
290
     0
  0
SCALE
  5
44
102
{ACAD_REACTORS
330
3B
102
}
330
3B
100
AcDbScale
 70
     0
300
1:30
140
1.0
141
30.0
290
     0
  0
SCALE
  5
45
102
{ACAD_REACTORS
330
3B
102
}
330
3B
100
AcDbScale
 70
     0
300
1:40
140
1.0
141
40.0
290
     0
  0
SCALE
  5
46
102
{ACAD_REACTORS
330
3B
102
}
330
3B
100
AcDbScale
 70
     0
300
1:50
140
1.0
141
50.0
290
     0
  0
SCALE
  5
47
102
{ACAD_REACTORS
330
3B
102
}
330
3B
100
AcDbScale
 70
     0
300
1:100
140
1.0
141
100.0
290
     0
  0
SCALE
  5
48
102
{ACAD_REACTORS
330
3B
102
}
330
3B
100
AcDbScale
 70
     0
300
2:1
140
2.0
141
1.0
290
     0
  0
SCALE
  5
49
102
{ACAD_REACTORS
330
3B
102
}
330
3B
100
AcDbScale
 70
     0
300
4:1
140
4.0
141
1.0
290
     0
  0
SCALE
  5
4A
102
{ACAD_REACTORS
330
3B
102
}
330
3B
100
AcDbScale
 70
     0
300
8:1
140
8.0
141
1.0
290
     0
  0
SCALE
  5
4B
102
{ACAD_REACTORS
330
3B
102
}
330
3B
100
AcDbScale
 70
     0
300
10:1
140
10.0
141
1.0
290
     0
  0
SCALE
  5
4C
102
{ACAD_REACTORS
330
3B
102
}
330
3B
100
AcDbScale
 70
     0
300
100:1
140
100.0
141
1.0
290
     0
  0
SCALE
  5
4D
102
{ACAD_REACTORS
330
3B
102
}
330
3B
100
AcDbScale
 70
     0
300
1/128" = 1'-0"
140
0.0078125
141
12.0
290
     0
  0
SCALE
  5
4E
102
{ACAD_REACTORS
330
3B
102
}
330
3B
100
AcDbScale
 70
     0
300
1/64" = 1'-0"
140
0.015625
141
12.0
290
     0
  0
SCALE
  5
4F
102
{ACAD_REACTORS
330
3B
102
}
330
3B
100
AcDbScale
 70
     0
300
1/32" = 1'-0"
140
0.03125
141
12.0
290
     0
  0
SCALE
  5
50
102
{ACAD_REACTORS
330
3B
102
}
330
3B
100
AcDbScale
 70
     0
300
1/16" = 1'-0"
140
0.0625
141
12.0
290
     0
  0
SCALE
  5
51
102
{ACAD_REACTORS
330
3B
102
}
330
3B
100
AcDbScale
 70
     0
300
3/32" = 1'-0"
140
0.09375
141
12.0
290
     0
  0
SCALE
  5
52
102
{ACAD_REACTORS
330
3B
102
}
330
3B
100
AcDbScale
 70
     0
300
1/8" = 1'-0"
140
0.125
141
12.0
290
     0
  0
SCALE
  5
53
102
{ACAD_REACTORS
330
3B
102
}
330
3B
100
AcDbScale
 70
     0
300
3/16" = 1'-0"
140
0.1875
141
12.0
290
     0
  0
SCALE
  5
54
102
{ACAD_REACTORS
330
3B
102
}
330
3B
100
AcDbScale
 70
     0
300
1/4" = 1'-0"
140
0.25
141
12.0
290
     0
  0
SCALE
  5
55
102
{ACAD_REACTORS
330
3B
102
}
330
3B
100
AcDbScale
 70
     0
300
3/8" = 1'-0"
140
0.375
141
12.0
290
     0
  0
SCALE
  5
56
102
{ACAD_REACTORS
330
3B
102
}
330
3B
100
AcDbScale
 70
     0
300
1/2" = 1'-0"
140
0.5
141
12.0
290
     0
  0
SCALE
  5
57
102
{ACAD_REACTORS
330
3B
102
}
330
3B
100
AcDbScale
 70
     0
300
3/4" = 1'-0"
140
0.75
141
12.0
290
     0
  0
SCALE
  5
58
102
{ACAD_REACTORS
330
3B
102
}
330
3B
100
AcDbScale
 70
     0
300
1" = 1'-0"
140
1.0
141
12.0
290
     0
  0
SCALE
  5
59
102
{ACAD_REACTORS
330
3B
102
}
330
3B
100
AcDbScale
 70
     0
300
1-1/2" = 1'-0"
140
1.5
141
12.0
290
     0
  0
SCALE
  5
5A
102
{ACAD_REACTORS
330
3B
102
}
330
3B
100
AcDbScale
 70
     0
300
3" = 1'-0"
140
3.0
141
12.0
290
     0
  0
SCALE
  5
5B
102
{ACAD_REACTORS
330
3B
102
}
330
3B
100
AcDbScale
 70
     0
300
6" = 1'-0"
140
6.0
141
12.0
290
     0
  0
SCALE
  5
5C
102
{ACAD_REACTORS
330
3B
102
}
330
3B
100
AcDbScale
 70
     0
300
1'-0" = 1'-0"
140
12.0
141
12.0
290
     0
  0
VISUALSTYLE
  5
2F
102
{ACAD_REACTORS
330
2A
102
}
330
2A
100
AcDbVisualStyle
  2
2dWireframe
 70
     4
 71
     0
 72
     2
 73
     0
 90
        0
 40
-0.6
 41
-30.0
 62
     5
 63
     7
421
 16777215
 74
     1
 91
        4
 64
     7
 65
   257
 75
     1
175
     1
 42
1.0
 92
        0
 66
   257
 43
1.0
 76
     1
 77
     6
 78
     2
 67
     7
 79
     5
170
     0
171
     0
290
     0
174
     0
 93
        1
 44
0.0
173
     0
291
     0
 45
0.0
1001
ACAD
1000
AcDbSavedByObjectVersion
1070
     0
  0
VISUALSTYLE
  5
31
102
{ACAD_REACTORS
330
2A
102
}
330
2A
100
AcDbVisualStyle
  2
3D Hidden
 70
     6
 71
     1
 72
     2
 73
     2
 90
        0
 40
-0.6
 41
-30.0
 62
     5
 63
     7
421
 16777215
 74
     2
 91
        2
 64
     7
 65
   257
 75
     2
175
     1
 42
40.0
 92
        0
 66
   257
 43
1.0
 76
     1
 77
     6
 78
     2
 67
     7
 79
     3
170
     0
171
     0
290
     0
174
     0
 93
        1
 44
0.0
173
     0
291
     0
 45
0.0
1001
ACAD
1000
AcDbSavedByObjectVersion
1070
     0
  0
VISUALSTYLE
  5
30
102
{ACAD_REACTORS
330
2A
102
}
330
2A
100
AcDbVisualStyle
  2
3dWireframe
 70
     5
 71
     0
 72
     2
 73
     0
 90
        0
 40
-0.6
 41
-30.0
 62
     5
 63
     7
421
 16777215
 74
     1
 91
        4
 64
     7
 65
   257
 75
     1
175
     1
 42
1.0
 92
        0
 66
   257
 43
1.0
 76
     1
 77
     6
 78
     2
 67
     7
 79
     5
170
     0
171
     0
290
     0
174
     0
 93
        1
 44
0.0
173
     0
291
     0
 45
0.0
1001
ACAD
1000
AcDbSavedByObjectVersion
1070
     0
  0
VISUALSTYLE
  5
32
102
{ACAD_REACTORS
330
2A
102
}
330
2A
100
AcDbVisualStyle
  2
Basic
 70
     7
 71
     1
 72
     0
 73
     1
 90
        0
 40
-0.6
 41
-30.0
 62
     5
 63
     7
421
 16777215
 74
     0
 91
        4
 64
     7
 65
   257
 75
     1
175
     1
 42
1.0
 92
        8
 66
     7
 43
1.0
 76
     1
 77
     6
 78
     2
 67
     7
 79
     5
170
     0
171
     0
290
     0
174
     0
 93
        1
 44
0.0
173
     0
291
     1
 45
0.0
1001
ACAD
1000
AcDbSavedByObjectVersion
1070
     0
  0
VISUALSTYLE
  5
36
102
{ACAD_REACTORS
330
2A
102
}
330
2A
100
AcDbVisualStyle
  2
Brighten
 70
    12
 71
     2
 72
     2
 73
     0
 90
        0
 40
-0.6
 41
-30.0
 62
     5
 63
     7
421
 16777215
 74
     1
 91
        4
 64
     7
 65
   257
 75
     1
175
     1
 42
1.0
 92
        8
 66
     7
 43
1.0
 76
     1
 77
     6
 78
     2
 67
     7
 79
     5
170
     0
171
     0
290
     0
174
     0
 93
        1
 44
50.0
173
     0
291
     1
 45
0.0
1001
ACAD
1000
AcDbSavedByObjectVersion
1070
     0
  0
VISUALSTYLE
  5
3A
102
{ACAD_REACTORS
330
2A
102
}
330
2A
100
AcDbVisualStyle
  2
ColorChange
 70
    16
 71
     2
 72
     2
 73
     3
 90
        0
 40
-0.6
 41
-30.0
 62
     5
 63
     8
421
  8421504
 74
     1
 91
        4
 64
     7
 65
   257
 75
     1
175
     1
 42
1.0
 92
        8
 66
     8
424
  8421504
 43
1.0
 76
     1
 77
     6
 78
     2
 67
     7
 79
     5
170
     0
171
     0
290
     0
174
     0
 93
        1
 44
0.0
173
     0
291
     1
 45
0.0
1001
ACAD
1000
AcDbSavedByObjectVersion
1070
     0
  0
VISUALSTYLE
  5
34
102
{ACAD_REACTORS
330
2A
102
}
330
2A
100
AcDbVisualStyle
  2
Conceptual
 70
     9
 71
     3
 72
     2
 73
     0
 90
        0
 40
-0.6
 41
-30.0
 62
     5
 63
     7
421
 16777215
 74
     2
 91
        2
 64
     7
 65
   257
 75
     1
175
     1
 42
40.0
 92
        8
 66
     7
 43
1.0
 76
     1
 77
     6
 78
     2
 67
     7
 79
     3
170
     0
171
     0
290
     0
174
     0
 93
        1
 44
0.0
173
     0
291
     0
 45
0.0
1001
ACAD
1000
AcDbSavedByObjectVersion
1070
     0
  0
VISUALSTYLE
  5
35
102
{ACAD_REACTORS
330
2A
102
}
330
2A
100
AcDbVisualStyle
  2
Dim
 70
    11
 71
     2
 72
     2
 73
     0
 90
        0
 40
-0.6
 41
-30.0
 62
     5
 63
     7
421
 16777215
 74
     1
 91
        4
 64
     7
 65
   257
 75
     1
175
     1
 42
1.0
 92
        8
 66
     7
 43
1.0
 76
     1
 77
     6
 78
     2
 67
     7
 79
     5
170
     0
171
     0
290
     0
174
     0
 93
        1
 44
-50.0
173
     0
291
     1
 45
0.0
1001
ACAD
1000
AcDbSavedByObjectVersion
1070
     0
  0
VISUALSTYLE
  5
39
102
{ACAD_REACTORS
330
2A
102
}
330
2A
100
AcDbVisualStyle
  2
Facepattern
 70
    15
 71
     2
 72
     2
 73
     0
 90
        0
 40
-0.6
 41
-30.0
 62
     5
 63
     7
421
 16777215
 74
     1
 91
        4
 64
     7
 65
   257
 75
     1
175
     1
 42
1.0
 92
        8
 66
     7
 43
1.0
 76
     1
 77
     6
 78
     2
 67
     7
 79
     5
170
     0
171
     0
290
     0
174
     0
 93
        1
 44
0.0
173
     0
291
     1
 45
0.0
1001
ACAD
1000
AcDbSavedByObjectVersion
1070
     0
  0
VISUALSTYLE
  5
2B
102
{ACAD_REACTORS
330
2A
102
}
330
2A
100
AcDbVisualStyle
  2
Flat
 70
     0
 71
     2
 72
     1
 73
     1
 90
        2
 40
-0.6
 41
30.0
 62
     5
 63
     7
421
 16777215
 74
     0
 91
        4
 64
     7
 65
   257
 75
     1
175
     1
 42
1.0
 92
        8
 66
     7
 43
1.0
 76
     1
 77
     6
 78
     2
 67
     7
 79
     5
170
     0
171
     0
290
     0
174
     0
 93
       13
 44
0.0
173
     0
291
     1
 45
0.0
1001
ACAD
1000
AcDbSavedByObjectVersion
1070
     0
  0
VISUALSTYLE
  5
2C
102
{ACAD_REACTORS
330
2A
102
}
330
2A
100
AcDbVisualStyle
  2
FlatWithEdges
 70
     1
 71
     2
 72
     1
 73
     1
 90
        2
 40
-0.6
 41
30.0
 62
     5
 63
     7
421
 16777215
 74
     1
 91
        4
 64
     7
 65
   257
 75
     1
175
     1
 42
1.0
 92
        0
 66
   257
 43
1.0
 76
     1
 77
     6
 78
     2
 67
     7
 79
     5
170
     0
171
     0
290
     0
174
     0
 93
       13
 44
0.0
173
     0
291
     1
 45
0.0
1001
ACAD
1000
AcDbSavedByObjectVersion
1070
     0
  0
VISUALSTYLE
  5
2D
102
{ACAD_REACTORS
330
2A
102
}
330
2A
100
AcDbVisualStyle
  2
Gouraud
 70
     2
 71
     2
 72
     2
 73
     1
 90
        2
 40
-0.6
 41
30.0
 62
     5
 63
     7
421
 16777215
 74
     0
 91
        4
 64
     7
 65
   257
 75
     1
175
     1
 42
1.0
 92
        0
 66
     7
 43
1.0
 76
     1
 77
     6
 78
     2
 67
     7
 79
     5
170
     0
171
     0
290
     0
174
     0
 93
       13
 44
0.0
173
     0
291
     1
 45
0.0
1001
ACAD
1000
AcDbSavedByObjectVersion
1070
     0
  0
VISUALSTYLE
  5
2E
102
{ACAD_REACTORS
330
2A
102
}
330
2A
100
AcDbVisualStyle
  2
GouraudWithEdges
 70
     3
 71
     2
 72
     2
 73
     1
 90
        2
 40
-0.6
 41
30.0
 62
     5
 63
     7
421
 16777215
 74
     1
 91
        4
 64
     7
 65
   257
 75
     1
175
     1
 42
1.0
 92
        0
 66
   257
 43
1.0
 76
     1
 77
     6
 78
     2
 67
     7
 79
     5
170
     0
171
     0
290
     0
174
     0
 93
       13
 44
0.0
173
     0
291
     1
 45
0.0
1001
ACAD
1000
AcDbSavedByObjectVersion
1070
     0
  0
VISUALSTYLE
  5
38
102
{ACAD_REACTORS
330
2A
102
}
330
2A
100
AcDbVisualStyle
  2
Linepattern
 70
    14
 71
     2
 72
     2
 73
     0
 90
        0
 40
-0.6
 41
-30.0
 62
     5
 63
     7
421
 16777215
 74
     1
 91
        4
 64
     7
 65
   257
 75
     7
175
     7
 42
1.0
 92
        8
 66
     7
 43
1.0
 76
     1
 77
     6
 78
     2
 67
     7
 79
     5
170
     0
171
     0
290
     0
174
     0
 93
        1
 44
0.0
173
     0
291
     1
 45
0.0
1001
ACAD
1000
AcDbSavedByObjectVersion
1070
     0
  0
VISUALSTYLE
  5
33
102
{ACAD_REACTORS
330
2A
102
}
330
2A
100
AcDbVisualStyle
  2
Realistic
 70
     8
 71
     2
 72
     2
 73
     0
 90
        0
 40
-0.6
 41
-30.0
 62
     5
 63
     7
421
 16777215
 74
     1
 91
        0
 64
     7
 65
   257
 75
     1
175
     1
 42
1.0
 92
        8
 66
     8
424
  7895160
 43
1.0
 76
     1
 77
     6
 78
     2
 67
     7
 79
     5
170
     0
171
     0
290
     0
174
     0
 93
       13
 44
0.0
173
     0
291
     0
 45
0.0
1001
ACAD
1000
AcDbSavedByObjectVersion
1070
     0
  0
VISUALSTYLE
  5
37
102
{ACAD_REACTORS
330
2A
102
}
330
2A
100
AcDbVisualStyle
  2
Thicken
 70
    13
 71
     2
 72
     2
 73
     0
 90
        0
 40
-0.6
 41
-30.0
 62
     5
 63
     7
421
 16777215
 74
     1
 91
        4
 64
     7
 65
   257
 75
     1
175
     1
 42
1.0
 92
       12
 66
     7
 43
1.0
 76
     1
 77
     6
 78
     2
 67
     7
 79
     5
170
     0
171
     0
290
     0
174
     0
 93
        1
 44
0.0
173
     0
291
     1
 45
0.0
1001
ACAD
1000
AcDbSavedByObjectVersion
1070
     0
  0
ENDSEC
  0
EOF
