  0
SECTION
  2
HEADER
  9
$ACADVER
  1
AC1018
  9
$ACADMAINTVER
 70
     0
  9
$DWGCODEPAGE
  3
ANSI_1252
  9
$INSBASE
 10
0.0
 20
0.0
 30
0.0
  9
$EXTMIN
 10
1.000000000000000E+20
 20
1.000000000000000E+20
 30
1.000000000000000E+20
  9
$EXTMAX
 10
-1.000000000000000E+20
 20
-1.000000000000000E+20
 30
-1.000000000000000E+20
  9
$LIMMIN
 10
0.0
 20
0.0
  9
$LIMMAX
 10
12.0
 20
9.0
  9
$ORTHOMODE
 70
     0
  9
$REGENMODE
 70
     1
  9
$FILLMODE
 70
     1
  9
$QTEXTMODE
 70
     0
  9
$MIRRTEXT
 70
     1
  9
$LTSCALE
 40
1.0
  9
$ATTMODE
 70
     1
  9
$TEXTSIZE
 40
0.2
  9
$TRACEWID
 40
0.05
  9
$TEXTSTYLE
  7
Standard
  9
$CLAYER
  8
0
  9
$CELTYPE
  6
ByLayer
  9
$CECOLOR
 62
   256
  9
$CELTSCALE
 40
1.0
  9
$DISPSILH
 70
     0
  9
$DIMSCALE
 40
1.0
  9
$DIMASZ
 40
0.18
  9
$DIMEXO
 40
0.0625
  9
$DIMDLI
 40
0.38
  9
$DIMRND
 40
0.0
  9
$DIMDLE
 40
0.0
  9
$DIMEXE
 40
0.18
  9
$DIMTP
 40
0.0
  9
$DIMTM
 40
0.0
  9
$DIMTXT
 40
0.18
  9
$DIMCEN
 40
0.09
  9
$DIMTSZ
 40
0.0
  9
$DIMTOL
 70
     0
  9
$DIMLIM
 70
     0
  9
$DIMTIH
 70
     1
  9
$DIMTOH
 70
     1
  9
$DIMSE1
 70
     0
  9
$DIMSE2
 70
     0
  9
$DIMTAD
 70
     0
  9
$DIMZIN
 70
     0
  9
$DIMBLK
  1

  9
$DIMASO
 70
     1
  9
$DIMSHO
 70
     1
  9
$DIMPOST
  1

  9
$DIMAPOST
  1

  9
$DIMALT
 70
     0
  9
$DIMALTD
 70
     2
  9
$DIMALTF
 40
25.4
  9
$DIMLFAC
 40
1.0
  9
$DIMTOFL
 70
     0
  9
$DIMTVP
 40
0.0
  9
$DIMTIX
 70
     0
  9
$DIMSOXD
 70
     0
  9
$DIMSAH
 70
     0
  9
$DIMBLK1
  1

  9
$DIMBLK2
  1

  9
$DIMSTYLE
  2
Standard
  9
$DIMCLRD
 70
     0
  9
$DIMCLRE
 70
     0
  9
$DIMCLRT
 70
     0
  9
$DIMTFAC
 40
1.0
  9
$DIMGAP
 40
0.09
  9
$DIMJUST
 70
     0
  9
$DIMSD1
 70
     0
  9
$DIMSD2
 70
     0
  9
$DIMTOLJ
 70
     1
  9
$DIMTZIN
 70
     0
  9
$DIMALTZ
 70
     0
  9
$DIMALTTZ
 70
     0
  9
$DIMUPT
 70
     0
  9
$DIMDEC
 70
     4
  9
$DIMTDEC
 70
     4
  9
$DIMALTU
 70
     2
  9
$DIMALTTD
 70
     2
  9
$DIMTXSTY
  7
Standard
  9
$DIMAUNIT
 70
     0
  9
$DIMADEC
 70
     0
  9
$DIMALTRND
 40
0.0
  9
$DIMAZIN
 70
     0
  9
$DIMDSEP
 70
    46
  9
$DIMATFIT
 70
     3
  9
$DIMFRAC
 70
     0
  9
$DIMLDRBLK
  1

  9
$DIMLUNIT
 70
     2
  9
$DIMLWD
 70
    -2
  9
$DIMLWE
 70
    -2
  9
$DIMTMOVE
 70
     0
  9
$LUNITS
 70
     2
  9
$LUPREC
 70
     4
  9
$SKETCHINC
 40
0.1
  9
$FILLETRAD
 40
0.5
  9
$AUNITS
 70
     0
  9
$AUPREC
 70
     0
  9
$MENU
  1
.
  9
$ELEVATION
 40
0.0
  9
$PELEVATION
 40
0.0
  9
$THICKNESS
 40
0.0
  9
$LIMCHECK
 70
     0
  9
$CHAMFERA
 40
0.5
  9
$CHAMFERB
 40
0.5
  9
$CHAMFERC
 40
1.0
  9
$CHAMFERD
 40
0.0
  9
$SKPOLY
 70
     0
  9
$TDCREATE
 40
2457324.653473437
  9
$TDUCREATE
 40
2457324.611806771
  9
$TDUPDATE
 40
2457324.653473449
  9
$TDUUPDATE
 40
2457324.611806782
  9
$TDINDWG
 40
0.0000000116
  9
$TDUSRTIMER
 40
0.0000000116
  9
$USRTIMER
 70
     1
  9
$ANGBASE
 50
0.0
  9
$ANGDIR
 70
     0
  9
$PDMODE
 70
     0
  9
$PDSIZE
 40
0.0
  9
$PLINEWID
 40
0.0
  9
$SPLFRAME
 70
     0
  9
$SPLINETYPE
 70
     6
  9
$SPLINESEGS
 70
     8
  9
$HANDSEED
  5
9D
  9
$SURFTAB1
 70
     6
  9
$SURFTAB2
 70
     6
  9
$SURFTYPE
 70
     6
  9
$SURFU
 70
     6
  9
$SURFV
 70
     6
  9
$UCSBASE
  2

  9
$UCSNAME
  2

  9
$UCSORG
 10
0.0
 20
0.0
 30
0.0
  9
$UCSXDIR
 10
1.0
 20
0.0
 30
0.0
  9
$UCSYDIR
 10
0.0
 20
1.0
 30
0.0
  9
$UCSORTHOREF
  2

  9
$UCSORTHOVIEW
 70
     0
  9
$UCSORGTOP
 10
0.0
 20
0.0
 30
0.0
  9
$UCSORGBOTTOM
 10
0.0
 20
0.0
 30
0.0
  9
$UCSORGLEFT
 10
0.0
 20
0.0
 30
0.0
  9
$UCSORGRIGHT
 10
0.0
 20
0.0
 30
0.0
  9
$UCSORGFRONT
 10
0.0
 20
0.0
 30
0.0
  9
$UCSORGBACK
 10
0.0
 20
0.0
 30
0.0
  9
$PUCSBASE
  2

  9
$PUCSNAME
  2

  9
$PUCSORG
 10
0.0
 20
0.0
 30
0.0
  9
$PUCSXDIR
 10
1.0
 20
0.0
 30
0.0
  9
$PUCSYDIR
 10
0.0
 20
1.0
 30
0.0
  9
$PUCSORTHOREF
  2

  9
$PUCSORTHOVIEW
 70
     0
  9
$PUCSORGTOP
 10
0.0
 20
0.0
 30
0.0
  9
$PUCSORGBOTTOM
 10
0.0
 20
0.0
 30
0.0
  9
$PUCSORGLEFT
 10
0.0
 20
0.0
 30
0.0
  9
$PUCSORGRIGHT
 10
0.0
 20
0.0
 30
0.0
  9
$PUCSORGFRONT
 10
0.0
 20
0.0
 30
0.0
  9
$PUCSORGBACK
 10
0.0
 20
0.0
 30
0.0
  9
$USERI1
 70
     0
  9
$USERI2
 70
     0
  9
$USERI3
 70
     0
  9
$USERI4
 70
     0
  9
$USERI5
 70
     0
  9
$USERR1
 40
0.0
  9
$USERR2
 40
0.0
  9
$USERR3
 40
0.0
  9
$USERR4
 40
0.0
  9
$USERR5
 40
0.0
  9
$WORLDVIEW
 70
     1
  9
$SHADEDGE
 70
     3
  9
$SHADEDIF
 70
    70
  9
$TILEMODE
 70
     1
  9
$MAXACTVP
 70
    64
  9
$PINSBASE
 10
0.0
 20
0.0
 30
0.0
  9
$PLIMCHECK
 70
     0
  9
$PEXTMIN
 10
1.000000000000000E+20
 20
1.000000000000000E+20
 30
1.000000000000000E+20
  9
$PEXTMAX
 10
-1.000000000000000E+20
 20
-1.000000000000000E+20
 30
-1.000000000000000E+20
  9
$PLIMMIN
 10
0.0
 20
0.0
  9
$PLIMMAX
 10
12.0
 20
9.0
  9
$UNITMODE
 70
     0
  9
$VISRETAIN
 70
     1
  9
$PLINEGEN
 70
     0
  9
$PSLTSCALE
 70
     1
  9
$TREEDEPTH
 70
  3020
  9
$CMLSTYLE
  2
Standard
  9
$CMLJUST
 70
     0
  9
$CMLSCALE
 40
1.0
  9
$PROXYGRAPHICS
 70
     1
  9
$MEASUREMENT
 70
     0
  9
$CELWEIGHT
370
    -1
  9
$ENDCAPS
280
     0
  9
$JOINSTYLE
280
     0
  9
$LWDISPLAY
290
     0
  9
$INSUNITS
 70
    13
  9
$HYPERLINKBASE
  1

  9
$STYLESHEET
  1

  9
$XEDIT
290
     1
  9
$CEPSNTYPE
380
     0
  9
$PSTYLEMODE
290
     1
  9
$FINGERPRINTGUID
  2
{EB18A053-540E-43AF-A380-0211C32848D2}
  9
$VERSIONGUID
  2
{FAEB1C32-E019-11D5-929B-00C0DF256EC4}
  9
$EXTNAMES
290
     1
  9
$PSVPSCALE
 40
0.0
  9
$OLESTARTUP
290
     0
  9
$SORTENTS
280
   127
  9
$INDEXCTL
280
     0
  9
$HIDETEXT
280
     1
  9
$XCLIPFRAME
290
     0
  9
$HALOGAP
280
     0
  9
$OBSCOLOR
 70
   257
  9
$OBSLTYPE
280
     0
  9
$INTERSECTIONDISPLAY
280
     0
  9
$INTERSECTIONCOLOR
 70
   257
  9
$DIMASSOC
280
     2
  9
$PROJECTNAME
  1

  0
ENDSEC
  0
SECTION
  2
CLASSES
  0
CLASS
  1
ACDBDICTIONARYWDFLT
  2
AcDbDictionaryWithDefault
  3
ObjectDBX Classes
 90
        0
 91
        4
280
     0
281
     0
  0
CLASS
  1
VISUALSTYLE
  2
AcDbVisualStyle
  3
ObjectDBX Classes
 90
     4095
 91
        4
280
     0
281
     0
  0
CLASS
  1
SCALE
  2
AcDbScale
  3
ObjectDBX Classes
 90
     1153
 91
        4
280
     0
281
     0
  0
ENDSEC
  0
SECTION
  2
TABLES
  0
TABLE
  2
VPORT
  5
8
330
0
100
AcDbSymbolTable
 70
     1
  0
VPORT
  5
29
330
8
100
AcDbSymbolTableRecord
100
AcDbViewportTableRecord
  2
*Active
 70
     0
 10
0.0
 20
0.0
 11
1.0
 21
1.0
 12
10.42990654205607
 22
4.5
 13
0.0
 23
0.0
 14
0.5
 24
0.5
 15
0.5
 25
0.5
 16
0.0
 26
0.0
 36
1.0
 17
0.0
 27
0.0
 37
0.0
 40
9.0
 41
1.972972972850329
 42
50.0
 43
0.0
 44
0.0
 50
0.0
 51
0.0
 71
     0
 72
   100
 73
     1
 74
     3
 75
     0
 76
     0
 77
     0
 78
     0
281
     0
 65
     1
110
0.0
120
0.0
130
0.0
111
1.0
121
0.0
131
0.0
112
0.0
122
1.0
132
0.0
 79
     0
146
0.0
  0
ENDTAB
  0
TABLE
  2
LTYPE
  5
5
330
0
100
AcDbSymbolTable
 70
     1
  0
LTYPE
  5
14
330
5
100
AcDbSymbolTableRecord
100
AcDbLinetypeTableRecord
  2
ByBlock
 70
     0
  3

 72
    65
 73
     0
 40
0.0
  0
LTYPE
  5
15
330
5
100
AcDbSymbolTableRecord
100
AcDbLinetypeTableRecord
  2
ByLayer
 70
     0
  3

 72
    65
 73
     0
 40
0.0
  0
LTYPE
  5
16
330
5
100
AcDbSymbolTableRecord
100
AcDbLinetypeTableRecord
  2
Continuous
 70
     0
  3
Solid line
 72
    65
 73
     0
 40
0.0
  0
ENDTAB
  0
TABLE
  2
LAYER
  5
2
330
0
100
AcDbSymbolTable
 70
     2
  0
LAYER
  5
10
330
2
100
AcDbSymbolTableRecord
100
AcDbLayerTableRecord
  2
0
 70
     0
 62
     7
  6
Continuous
370
    -3
390
F
  0
LAYER
  5
5E
330
2
100
AcDbSymbolTableRecord
100
AcDbLayerTableRecord
  2
text2
 70
     0
 62
    16
420
  8388608
  6
Continuous
370
    -3
390
F
  0
ENDTAB
  0
TABLE
  2
STYLE
  5
3
330
0
100
AcDbSymbolTable
 70
     1
  0
STYLE
  5
11
330
3
100
AcDbSymbolTableRecord
100
AcDbTextStyleTableRecord
  2
Standard
 70
     0
 40
0.0
 41
1.0
 50
0.0
 71
     0
 42
0.2
  3
txt
  4

  0
ENDTAB
  0
TABLE
  2
VIEW
  5
6
330
0
100
AcDbSymbolTable
 70
     0
  0
ENDTAB
  0
TABLE
  2
UCS
  5
7
330
0
100
AcDbSymbolTable
 70
     0
  0
ENDTAB
  0
TABLE
  2
APPID
  5
9
330
0
100
AcDbSymbolTable
 70
     1
  0
APPID
  5
12
330
9
100
AcDbSymbolTableRecord
100
AcDbRegAppTableRecord
  2
ACAD
 70
     0
  0
ENDTAB
  0
TABLE
  2
DIMSTYLE
  5
A
330
0
100
AcDbSymbolTable
 70
     1
100
AcDbDimStyleTable
  0
DIMSTYLE
105
27
330
A
100
AcDbSymbolTableRecord
100
AcDbDimStyleTableRecord
  2
Standard
 70
     0
340
11
  0
ENDTAB
  0
TABLE
  2
BLOCK_RECORD
  5
1
330
0
100
AcDbSymbolTable
 70
     1
  0
BLOCK_RECORD
  5
1F
330
1
100
AcDbSymbolTableRecord
100
AcDbBlockTableRecord
  2
*Model_Space
340
22
  0
BLOCK_RECORD
  5
1B
330
1
100
AcDbSymbolTableRecord
100
AcDbBlockTableRecord
  2
*Paper_Space
340
1E
  0
BLOCK_RECORD
  5
23
330
1
100
AcDbSymbolTableRecord
100
AcDbBlockTableRecord
  2
*Paper_Space0
340
26
  0
ENDTAB
  0
ENDSEC
  0
SECTION
  2
BLOCKS
  0
BLOCK
  5
20
330
1F
100
AcDbEntity
  8
0
100
AcDbBlockBegin
  2
*Model_Space
 70
     0
 10
0.0
 20
0.0
 30
0.0
  3
*Model_Space
  1

  0
ENDBLK
  5
21
330
1F
100
AcDbEntity
  8
0
100
AcDbBlockEnd
  0
BLOCK
  5
1C
330
1B
100
AcDbEntity
 67
     1
  8
0
100
AcDbBlockBegin
  2
*Paper_Space
 70
     0
 10
0.0
 20
0.0
 30
0.0
  3
*Paper_Space
  1

  0
ENDBLK
  5
1D
330
1B
100
AcDbEntity
 67
     1
  8
0
100
AcDbBlockEnd
  0
BLOCK
  5
24
330
23
100
AcDbEntity
  8
0
100
AcDbBlockBegin
  2
*Paper_Space0
 70
     0
 10
0.0
 20
0.0
 30
0.0
  3
*Paper_Space0
  1

  0
ENDBLK
  5
25
330
23
100
AcDbEntity
  8
0
100
AcDbBlockEnd
  0
ENDSEC
  0
SECTION
  2
ENTITIES
  0
LWPOLYLINE
  5
5D
330
1F
100
AcDbEntity
  8
text2
100
AcDbPolyline
 90
       17
 70
     1
 43
0.0
 10
86.43
 20
1071.5
 10
86.43
 20
1067.929
 10
82.855
 20
1064.355
 10
65.0
 20
1064.355
 10
65.0
 20
1057.215
 10
86.43
 20
1057.215
 10
93.57000000000001
 20
1064.355
 10
93.57000000000001
 20
1100.07
 10
86.43
 20
1100.07
 10
86.43
 20
1096.5
 10
82.855
 20
1100.07
 10
72.14
 20
1100.07
 10
65.0
 20
1092.93
 10
65.0
 20
1078.645
 10
72.14
 20
1071.5
 10
82.855
 20
1071.5
 10
86.43
 20
1075.071
  0
LWPOLYLINE
  5
5F
330
1F
100
AcDbEntity
  8
text2
100
AcDbPolyline
 90
        8
 70
     1
 43
0.0
 10
82.855
 20
1082.215
 10
82.855
 20
1089.355
 10
79.285
 20
1092.93
 10
75.715
 20
1092.93
 10
72.14
 20
1089.355
 10
72.14
 20
1082.215
 10
75.715
 20
1078.645
 10
79.285
 20
1078.645
  0
LWPOLYLINE
  5
60
330
1F
100
AcDbEntity
  8
text2
100
AcDbPolyline
 90
       12
 70
     1
 43
0.0
 10
111.43
 20
1071.5
 10
125.715
 20
1096.5
 10
111.43
 20
1121.5
 10
118.57
 20
1121.5
 10
129.285
 20
1103.645
 10
140.0
 20
1121.5
 10
147.14
 20
1121.5
 10
132.855
 20
1096.5
 10
147.14
 20
1071.5
 10
140.0
 20
1071.5
 10
129.285
 20
1089.355
 10
118.57
 20
1071.5
  0
LWPOLYLINE
  5
61
330
1F
100
AcDbEntity
  8
text2
100
AcDbPolyline
 90
        8
 70
     1
 43
0.0
 10
161.43
 20
1078.645
 10
161.43
 20
1114.355
 10
168.57
 20
1121.5
 10
190.0
 20
1121.5
 10
197.14
 20
1114.355
 10
197.14
 20
1078.645
 10
190.0
 20
1071.5
 10
168.57
 20
1071.5
  0
LWPOLYLINE
  5
62
330
1F
100
AcDbEntity
  8
text2
100
AcDbPolyline
 90
        8
 70
     1
 43
0.0
 10
172.14
 20
1078.645
 10
186.43
 20
1078.645
 10
190.0
 20
1082.215
 10
190.0
 20
1110.785
 10
186.43
 20
1114.355
 10
172.14
 20
1114.355
 10
168.57
 20
1110.785
 10
168.57
 20
1082.215
  0
LWPOLYLINE
  5
63
330
1F
100
AcDbEntity
  8
text2
100
AcDbPolyline
 90
        9
 70
     1
 43
0.0
 10
211.43
 20
1071.5
 10
211.43
 20
1121.5
 10
240.0
 20
1121.5
 10
247.14
 20
1114.355
 10
247.14
 20
1103.645
 10
240.0
 20
1096.5
 10
247.14
 20
1089.355
 10
247.14
 20
1078.645
 10
240.0
 20
1071.5
  0
LWPOLYLINE
  5
64
330
1F
100
AcDbEntity
  8
text2
100
AcDbPolyline
 90
        6
 70
     1
 43
0.0
 10
218.57
 20
1078.645
 10
236.43
 20
1078.645
 10
240.0
 20
1082.215
 10
240.0
 20
1085.785
 10
232.855
 20
1092.93
 10
218.57
 20
1092.93
  0
LWPOLYLINE
  5
65
330
1F
100
AcDbEntity
  8
text2
100
AcDbPolyline
 90
        6
 70
     1
 43
0.0
 10
218.57
 20
1100.07
 10
232.855
 20
1100.07
 10
240.0
 20
1107.215
 10
240.0
 20
1110.785
 10
236.43
 20
1114.355
 10
218.57
 20
1114.355
  0
LWPOLYLINE
  5
66
330
1F
100
AcDbEntity
  8
text2
100
AcDbPolyline
 90
        8
 70
     1
 43
0.0
 10
265.0
 20
1078.645
 10
265.0
 20
1114.355
 10
272.14
 20
1121.5
 10
286.43
 20
1121.5
 10
293.57
 20
1114.355
 10
293.57
 20
1078.645
 10
286.43
 20
1071.5
 10
272.14
 20
1071.5
  0
LWPOLYLINE
  5
67
330
1F
100
AcDbEntity
  8
text2
100
AcDbPolyline
 90
        8
 70
     1
 43
0.0
 10
272.14
 20
1082.215
 10
272.14
 20
1110.785
 10
275.715
 20
1114.355
 10
282.855
 20
1114.355
 10
286.43
 20
1110.785
 10
286.43
 20
1082.215
 10
282.855
 20
1078.645
 10
275.715
 20
1078.645
  0
LWPOLYLINE
  5
68
330
1F
100
AcDbEntity
  8
text2
100
AcDbPolyline
 90
        8
 70
     1
 43
0.0
 10
315.0
 20
1078.645
 10
315.0
 20
1114.355
 10
322.14
 20
1121.5
 10
336.43
 20
1121.5
 10
343.57
 20
1114.355
 10
343.57
 20
1078.645
 10
336.43
 20
1071.5
 10
322.14
 20
1071.5
  0
LWPOLYLINE
  5
69
330
1F
100
AcDbEntity
  8
text2
100
AcDbPolyline
 90
        8
 70
     1
 43
0.0
 10
322.14
 20
1082.215
 10
322.14
 20
1110.785
 10
325.715
 20
1114.355
 10
332.855
 20
1114.355
 10
336.43
 20
1110.785
 10
336.43
 20
1082.215
 10
332.855
 20
1078.645
 10
325.715
 20
1078.645
  0
LWPOLYLINE
  5
6A
330
1F
100
AcDbEntity
  8
text2
100
AcDbPolyline
 90
       10
 70
     1
 43
0.0
 10
368.57
 20
1071.5
 10
368.57
 20
1078.645
 10
375.715
 20
1078.645
 10
375.715
 20
1114.355
 10
368.57
 20
1114.355
 10
375.715
 20
1121.5
 10
382.855
 20
1121.5
 10
382.855
 20
1078.645
 10
390.0
 20
1078.645
 10
390.0
 20
1071.5
  0
LWPOLYLINE
  5
6B
330
1F
100
AcDbEntity
  8
text2
100
AcDbPolyline
 90
        7
 70
     1
 43
0.0
 10
418.57
 20
1071.5
 10
440.0
 20
1114.355
 10
411.43
 20
1114.355
 10
411.43
 20
1121.5
 10
447.14
 20
1121.5
 10
447.14
 20
1114.355
 10
425.715
 20
1071.5
  0
LWPOLYLINE
  5
6C
330
1F
100
AcDbEntity
  8
text2
100
AcDbPolyline
 90
       10
 70
     1
 43
0.0
 10
2484.213
 20
1071.5
 10
2484.213
 20
1075.787
 10
2488.5
 20
1075.787
 10
2488.5
 20
1097.213
 10
2484.213
 20
1097.213
 10
2488.5
 20
1101.5
 10
2492.784
 20
1101.5
 10
2492.784
 20
1075.787
 10
2497.071
 20
1075.787
 10
2497.071
 20
1071.5
  0
LWPOLYLINE
  5
6D
330
1F
100
AcDbEntity
  8
text2
100
AcDbPolyline
 90
       25
 70
     1
 43
0.0
 10
2509.929
 20
1075.787
 10
2514.213
 20
1077.929
 10
2516.355
 20
1075.787
 10
2524.929
 20
1075.787
 10
2527.071
 20
1077.929
 10
2527.071
 20
1080.071
 10
2522.784
 20
1084.358
 10
2518.5
 20
1084.358
 10
2518.5
 20
1088.642
 10
2522.784
 20
1088.642
 10
2527.071
 20
1092.929
 10
2527.071
 20
1095.071
 10
2524.929
 20
1097.213
 10
2516.355
 20
1097.213
 10
2514.213
 20
1095.071
 10
2509.929
 20
1097.213
 10
2514.213
 20
1101.5
 10
2527.071
 20
1101.5
 10
2531.355
 20
1097.213
 10
2531.355
 20
1090.787
 10
2527.071
 20
1086.5
 10
2531.355
 20
1082.213
 10
2531.355
 20
1075.787
 10
2527.071
 20
1071.5
 10
2514.213
 20
1071.5
  0
LWPOLYLINE
  5
6E
330
1F
100
AcDbEntity
  8
text2
100
AcDbPolyline
 90
       10
 70
     1
 43
0.0
 10
2835.892
 20
551.6
 10
2835.892
 20
555.8870000000001
 10
2840.179
 20
555.8870000000001
 10
2840.179
 20
577.313
 10
2835.892
 20
577.313
 10
2840.179
 20
581.6
 10
2844.463
 20
581.6
 10
2844.463
 20
555.8870000000001
 10
2848.75
 20
555.8870000000001
 10
2848.75
 20
551.6
  0
LWPOLYLINE
  5
6F
330
1F
100
AcDbEntity
  8
text2
100
AcDbPolyline
 90
       11
 70
     1
 43
0.0
 10
2874.463
 20
551.6
 10
2874.463
 20
562.313
 10
2861.608
 20
562.313
 10
2861.608
 20
566.6
 10
2874.463
 20
581.6
 10
2878.75
 20
581.6
 10
2878.75
 20
566.6
 10
2883.034
 20
566.6
 10
2883.034
 20
562.313
 10
2878.75
 20
562.313
 10
2878.75
 20
551.6
  0
LWPOLYLINE
  5
70
330
1F
100
AcDbEntity
  8
text2
100
AcDbPolyline
 90
        3
 70
     1
 43
0.0
 10
2874.463
 20
566.6
 10
2865.892
 20
566.6
 10
2874.463
 20
575.171
  0
LWPOLYLINE
  5
71
330
1F
100
AcDbEntity
  8
text2
100
AcDbPolyline
 90
       10
 70
     1
 43
0.0
 10
2831.608
 20
222.687
 10
2831.608
 20
226.974
 10
2835.895
 20
226.974
 10
2835.895
 20
248.4
 10
2831.608
 20
248.4
 10
2835.895
 20
252.687
 10
2840.179
 20
252.687
 10
2840.179
 20
226.974
 10
2844.466
 20
226.974
 10
2844.466
 20
222.687
  0
LWPOLYLINE
  5
72
330
1F
100
AcDbEntity
  8
text2
100
AcDbPolyline
 90
       16
 70
     1
 43
0.0
 10
2857.324
 20
226.974
 10
2857.324
 20
248.4
 10
2861.608
 20
252.687
 10
2874.466
 20
252.687
 10
2878.75
 20
248.4
 10
2874.466
 20
246.258
 10
2872.324
 20
248.4
 10
2863.75
 20
248.4
 10
2861.608
 20
246.258
 10
2861.608
 20
237.687
 10
2863.75
 20
239.829
 10
2874.466
 20
239.829
 10
2878.75
 20
235.545
 10
2878.75
 20
226.974
 10
2874.466
 20
222.687
 10
2861.608
 20
222.687
  0
LWPOLYLINE
  5
73
330
1F
100
AcDbEntity
  8
text2
100
AcDbPolyline
 90
        8
 70
     1
 43
0.0
 10
2861.608
 20
229.116
 10
2861.608
 20
231.258
 10
2865.895
 20
235.545
 10
2872.324
 20
235.545
 10
2874.466
 20
233.4
 10
2874.466
 20
229.116
 10
2872.324
 20
226.974
 10
2863.75
 20
226.974
  0
LWPOLYLINE
  5
74
330
1F
100
AcDbEntity
  8
text2
100
AcDbPolyline
 90
       10
 70
     1
 43
0.0
 10
117.856
 20
72.943
 10
117.856
 20
77.23
 10
122.143
 20
77.23
 10
122.143
 20
98.656
 10
117.856
 20
98.656
 10
122.143
 20
102.943
 10
126.427
 20
102.943
 10
126.427
 20
77.23
 10
130.714
 20
77.23
 10
130.714
 20
72.943
  0
LWPOLYLINE
  5
75
330
1F
100
AcDbEntity
  8
text2
100
AcDbPolyline
 90
        7
 70
     1
 43
0.0
 10
147.856
 20
72.943
 10
160.714
 20
98.656
 10
143.572
 20
98.656
 10
143.572
 20
102.943
 10
164.998
 20
102.943
 10
164.998
 20
98.656
 10
152.143
 20
72.943
  0
LWPOLYLINE
  5
76
330
1F
100
AcDbEntity
  8
text2
100
AcDbPolyline
 90
       10
 70
     1
 43
0.0
 10
120.0
 20
499.2
 10
120.0
 20
503.487
 10
124.287
 20
503.487
 10
124.287
 20
524.913
 10
120.0
 20
524.913
 10
124.287
 20
529.2
 10
128.571
 20
529.2
 10
128.571
 20
503.487
 10
132.858
 20
503.487
 10
132.858
 20
499.2
  0
LWPOLYLINE
  5
77
330
1F
100
AcDbEntity
  8
text2
100
AcDbPolyline
 90
       16
 70
     1
 43
0.0
 10
145.716
 20
503.487
 10
150.0
 20
505.629
 10
152.142
 20
503.487
 10
160.716
 20
503.487
 10
162.858
 20
505.629
 10
162.858
 20
514.2
 10
160.716
 20
512.058
 10
150.0
 20
512.058
 10
145.716
 20
516.342
 10
145.716
 20
524.913
 10
150.0
 20
529.2
 10
162.858
 20
529.2
 10
167.142
 20
524.913
 10
167.142
 20
503.487
 10
162.858
 20
499.2
 10
150.0
 20
499.2
  0
LWPOLYLINE
  5
78
330
1F
100
AcDbEntity
  8
text2
100
AcDbPolyline
 90
        8
 70
     1
 43
0.0
 10
162.858
 20
520.629
 10
158.571
 20
516.342
 10
152.142
 20
516.342
 10
150.0
 20
518.487
 10
150.0
 20
522.771
 10
152.142
 20
524.913
 10
160.716
 20
524.913
 10
162.858
 20
522.771
  0
LWPOLYLINE
  5
79
330
1F
100
AcDbEntity
  8
text2
100
AcDbPolyline
 90
        4
 70
     1
 43
0.0
 10
0.0
 20
0.0
 10
3000.0
 20
0.0
 10
3000.0
 20
1200.0
 10
0.0
 20
1200.0
  0
LWPOLYLINE
  5
7A
330
1F
100
AcDbEntity
  8
text2
100
AcDbPolyline
 90
        4
 70
     1
 43
0.0
 10
1697.5
 20
1134.0
 10
1697.5
 20
1039.0
 10
1602.5
 20
1039.0
 10
1602.5
 20
1134.0
  0
LWPOLYLINE
  5
7B
330
1F
100
AcDbEntity
  8
text2
100
AcDbPolyline
 90
        4
 70
     1
 43
0.0
 10
1997.5
 20
1134.0
 10
1997.5
 20
1039.0
 10
1902.5
 20
1039.0
 10
1902.5
 20
1134.0
  0
LWPOLYLINE
  5
7C
330
1F
100
AcDbEntity
  8
text2
100
AcDbPolyline
 90
       25
 70
     1
 43
0.0
 10
143.57
 20
610.0
 10
150.71
 20
602.855
 10
150.71
 20
592.145
 10
143.57
 20
585.0
 10
150.71
 20
577.855
 10
150.71
 20
567.145
 10
143.57
 20
560.0
 10
122.14
 20
560.0
 10
115.0
 20
567.145
 10
122.14
 20
570.715
 10
125.71
 20
567.145
 10
140.0
 20
567.145
 10
143.57
 20
570.715
 10
143.57
 20
574.285
 10
136.425
 20
581.4300000000001
 10
129.285
 20
581.4300000000001
 10
129.285
 20
588.57
 10
136.425
 20
588.57
 10
143.57
 20
595.715
 10
143.57
 20
599.285
 10
140.0
 20
602.855
 10
125.71
 20
602.855
 10
122.14
 20
599.285
 10
115.0
 20
602.855
 10
122.14
 20
610.0
  0
LWPOLYLINE
  5
7D
330
1F
100
AcDbEntity
  8
text2
100
AcDbPolyline
 90
        8
 70
     1
 43
0.0
 10
65.0
 20
560.0
 10
65.0
 20
610.0
 10
93.57000000000001
 20
610.0
 10
100.71
 20
602.855
 10
100.71
 20
588.57
 10
93.57000000000001
 20
581.4300000000001
 10
72.14
 20
581.4300000000001
 10
72.14
 20
560.0
  0
LWPOLYLINE
  5
7E
330
1F
100
AcDbEntity
  8
text2
100
AcDbPolyline
 90
       10
 70
     1
 43
0.0
 10
2737.5
 20
950.5
 10
2737.5
 20
993.355
 10
2744.64
 20
1000.5
 10
2766.07
 20
1000.5
 10
2773.21
 20
993.355
 10
2773.21
 20
950.5
 10
2766.07
 20
950.5
 10
2766.07
 20
971.9300000000001
 10
2744.64
 20
971.9300000000001
 10
2744.64
 20
950.5
  0
LWPOLYLINE
  5
7F
330
1F
100
AcDbEntity
  8
text2
100
AcDbPolyline
 90
        6
 70
     1
 43
0.0
 10
2744.64
 20
979.07
 10
2766.07
 20
979.07
 10
2766.07
 20
989.785
 10
2762.5
 20
993.355
 10
2748.21
 20
993.355
 10
2744.64
 20
989.785
  0
LWPOLYLINE
  5
80
330
1F
100
AcDbEntity
  8
text2
100
AcDbPolyline
 90
        4
 70
     1
 43
0.0
 10
2737.5
 20
1010.5
 10
2737.5
 20
1135.0
 10
2935.0
 20
1135.0
 10
2935.0
 20
1010.5
  0
LWPOLYLINE
  5
81
330
1F
100
AcDbEntity
  8
text2
100
AcDbPolyline
 90
       26
 70
     1
 43
0.0
 10
172.3
 20
391.6
 10
173.1
 20
386.5
 10
172.3
 20
381.4
 10
169.9
 20
376.7
 10
166.3
 20
373.1
 10
161.6
 20
370.7
 10
157.2
 20
370.0
 10
66.0
 20
370.0
 10
66.0
 20
487.4
 10
66.7
 20
491.8
 10
69.10000000000001
 20
496.5
 10
72.7
 20
500.1
 10
77.4
 20
502.5
 10
82.5
 20
503.3
 10
87.60000000000001
 20
502.5
 10
92.3
 20
500.1
 10
95.9
 20
496.5
 10
98.3
 20
491.8
 10
99.0
 20
487.4
 10
99.0
 20
478.2
 10
147.9
 20
478.2
 10
147.9
 20
403.0
 10
157.2
 20
403.0
 10
161.6
 20
402.3
 10
166.3
 20
399.9
 10
169.9
 20
396.3
  0
LWPOLYLINE
  5
82
330
1F
100
AcDbEntity
  8
text2
100
AcDbPolyline
 90
        8
 70
     1
 43
0.0
 10
66.0
 20
271.0
 10
66.0
 20
329.0
 10
161.2
 20
329.0
 10
191.2
 20
316.5
 10
200.4
 20
316.5
 10
200.4
 20
283.5
 10
191.2
 20
283.5
 10
161.2
 20
271.0
  0
LWPOLYLINE
  5
83
330
1F
100
AcDbEntity
  8
text2
100
AcDbPolyline
 90
       26
 70
     1
 43
0.0
 10
66.0
 20
112.6
 10
66.0
 20
230.0
 10
157.2
 20
230.0
 10
161.6
 20
229.3
 10
166.3
 20
226.9
 10
169.9
 20
223.3
 10
172.3
 20
218.6
 10
173.1
 20
213.5
 10
172.3
 20
208.4
 10
169.9
 20
203.7
 10
166.3
 20
200.1
 10
161.6
 20
197.7
 10
157.2
 20
197.0
 10
147.9
 20
197.0
 10
147.9
 20
121.8
 10
99.0
 20
121.8
 10
99.0
 20
112.6
 10
98.3
 20
108.2
 10
95.9
 20
103.5
 10
92.3
 20
99.9
 10
87.60000000000001
 20
97.5
 10
82.5
 20
96.7
 10
77.4
 20
97.5
 10
72.7
 20
99.9
 10
69.10000000000001
 20
103.5
 10
66.7
 20
108.2
  0
LWPOLYLINE
  5
84
330
1F
100
AcDbEntity
  8
text2
100
AcDbPolyline
 90
        4
 70
     1
 43
0.0
 10
2352.5
 20
1134.0
 10
2352.5
 20
1039.0
 10
2447.5
 20
1039.0
 10
2447.5
 20
1134.0
  0
LWPOLYLINE
  5
85
330
1F
100
AcDbEntity
  8
text2
100
AcDbPolyline
 90
        4
 70
     1
 43
0.0
 10
2202.5
 20
1134.0
 10
2202.5
 20
1039.0
 10
2297.5
 20
1039.0
 10
2297.5
 20
1134.0
  0
LWPOLYLINE
  5
86
330
1F
100
AcDbEntity
  8
text2
100
AcDbPolyline
 90
        4
 70
     1
 43
0.0
 10
2052.5
 20
1134.0
 10
2052.5
 20
1039.0
 10
2147.5
 20
1039.0
 10
2147.5
 20
1134.0
  0
LWPOLYLINE
  5
87
330
1F
100
AcDbEntity
  8
text2
100
AcDbPolyline
 90
        4
 70
     1
 43
0.0
 10
1152.5
 20
1134.0
 10
1152.5
 20
1039.0
 10
1247.5
 20
1039.0
 10
1247.5
 20
1134.0
  0
LWPOLYLINE
  5
88
330
1F
100
AcDbEntity
  8
text2
100
AcDbPolyline
 90
        4
 70
     1
 43
0.0
 10
852.5
 20
1134.0
 10
852.5
 20
1039.0
 10
947.5
 20
1039.0
 10
947.5
 20
1134.0
  0
LWPOLYLINE
  5
89
330
1F
100
AcDbEntity
  8
text2
100
AcDbPolyline
 90
        4
 70
     1
 43
0.0
 10
702.5
 20
1134.0
 10
702.5
 20
1039.0
 10
797.5
 20
1039.0
 10
797.5
 20
1134.0
  0
LWPOLYLINE
  5
8A
330
1F
100
AcDbEntity
  8
text2
100
AcDbPolyline
 90
        4
 70
     1
 43
0.0
 10
552.5
 20
1134.0
 10
552.5
 20
1039.0
 10
647.5
 20
1039.0
 10
647.5
 20
1134.0
  0
LWPOLYLINE
  5
8B
330
1F
100
AcDbEntity
  8
text2
100
AcDbPolyline
 90
        4
 70
     1
 43
0.0
 10
1452.5
 20
977.0
 10
1452.5
 20
1134.0
 10
1547.5
 20
1134.0
 10
1547.5
 20
977.0
  0
LWPOLYLINE
  5
8C
330
1F
100
AcDbEntity
  8
text2
100
AcDbPolyline
 90
        8
 70
     1
 43
0.0
 10
2849.29
 20
138.4
 10
2849.29
 20
188.4
 10
2877.86
 20
188.4
 10
2885.0
 20
181.255
 10
2885.0
 20
166.97
 10
2877.86
 20
159.83
 10
2856.43
 20
159.83
 10
2856.43
 20
138.4
  0
LWPOLYLINE
  5
8D
330
1F
100
AcDbEntity
  8
text2
100
AcDbPolyline
 90
        6
 70
     1
 43
0.0
 10
2856.43
 20
166.97
 10
2874.29
 20
166.97
 10
2877.86
 20
170.545
 10
2877.86
 20
177.685
 10
2874.29
 20
181.255
 10
2856.43
 20
181.255
  0
LWPOLYLINE
  5
8E
330
1F
100
AcDbEntity
  8
text2
100
AcDbPolyline
 90
       15
 70
     1
 43
0.0
 10
2899.29
 20
138.4
 10
2899.29
 20
149.115
 10
2927.86
 20
170.545
 10
2927.86
 20
177.685
 10
2924.29
 20
181.255
 10
2910.0
 20
181.255
 10
2906.43
 20
177.685
 10
2899.29
 20
181.255
 10
2906.43
 20
188.4
 10
2927.86
 20
188.4
 10
2935.0
 20
181.255
 10
2935.0
 20
166.97
 10
2906.43
 20
145.545
 10
2935.0
 20
145.545
 10
2935.0
 20
138.4
  0
LWPOLYLINE
  5
8F
330
1F
100
AcDbEntity
  8
text2
100
AcDbPolyline
 90
       25
 70
     1
 43
0.0
 10
2933.3
 20
551.8000000000001
 10
2934.0
 20
547.4
 10
2934.0
 20
470.0
 10
2869.2
 20
470.0
 10
2864.8
 20
470.7
 10
2860.1
 20
473.1
 10
2856.5
 20
476.7
 10
2854.1
 20
481.4
 10
2853.3
 20
486.5
 10
2854.1
 20
491.6
 10
2856.5
 20
496.3
 10
2860.1
 20
499.9
 10
2864.8
 20
502.3
 10
2869.2
 20
503.0
 10
2878.5
 20
503.0
 10
2901.0
 20
538.2
 10
2901.0
 20
547.4
 10
2901.7
 20
551.8000000000001
 10
2904.1
 20
556.5
 10
2907.7
 20
560.1
 10
2912.4
 20
562.5
 10
2917.5
 20
563.3000000000001
 10
2922.6
 20
562.5
 10
2927.3
 20
560.1
 10
2930.9
 20
556.5
  0
LWPOLYLINE
  5
90
330
1F
100
AcDbEntity
  8
text2
100
AcDbPolyline
 90
       25
 70
     1
 43
0.0
 10
2901.0
 20
252.6
 10
2901.0
 20
261.8
 10
2878.5
 20
297.0
 10
2869.2
 20
297.0
 10
2864.8
 20
297.7
 10
2860.1
 20
300.1
 10
2856.5
 20
303.7
 10
2854.1
 20
308.4
 10
2853.3
 20
313.5
 10
2854.1
 20
318.6
 10
2856.5
 20
323.3
 10
2860.1
 20
326.9
 10
2864.8
 20
329.3
 10
2869.2
 20
330.0
 10
2934.0
 20
330.0
 10
2934.0
 20
252.6
 10
2933.3
 20
248.2
 10
2930.9
 20
243.5
 10
2927.3
 20
239.9
 10
2922.6
 20
237.5
 10
2917.5
 20
236.7
 10
2912.4
 20
237.5
 10
2907.7
 20
239.9
 10
2904.1
 20
243.5
 10
2901.7
 20
248.2
  0
LWPOLYLINE
  5
91
330
1F
100
AcDbEntity
  8
text2
100
AcDbPolyline
 90
        8
 70
     1
 43
0.0
 10
2826.0
 20
383.5
 10
2826.0
 20
416.5
 10
2835.2
 20
416.5
 10
2865.2
 20
429.0
 10
2934.0
 20
429.0
 10
2934.0
 20
371.0
 10
2865.2
 20
371.0
 10
2835.2
 20
383.5
  0
LWPOLYLINE
  5
92
330
1F
100
AcDbEntity
  8
text2
100
AcDbPolyline
 90
        4
 70
     1
 43
0.0
 10
1397.5
 20
1134.0
 10
1397.5
 20
1039.0
 10
1302.5
 20
1039.0
 10
1302.5
 20
1134.0
  0
LWPOLYLINE
  5
93
330
1F
100
AcDbEntity
  8
text2
100
AcDbPolyline
 90
        4
 70
     1
 43
0.0
 10
1097.5
 20
1134.0
 10
1097.5
 20
1039.0
 10
1002.5
 20
1039.0
 10
1002.5
 20
1134.0
  0
LWPOLYLINE
  5
94
330
1F
100
AcDbEntity
  8
text2
100
AcDbPolyline
 90
        4
 70
     1
 43
0.0
 10
1847.5
 20
1134.0
 10
1847.5
 20
1039.0
 10
1752.5
 20
1039.0
 10
1752.5
 20
1134.0
  0
LWPOLYLINE
  5
95
330
1F
100
AcDbEntity
  8
text2
100
AcDbPolyline
 90
        8
 70
     1
 43
0.0
 10
2561.358
 20
1071.5
 10
2561.358
 20
1121.5
 10
2589.928
 20
1121.5
 10
2597.068
 20
1114.355
 10
2597.068
 20
1100.07
 10
2589.928
 20
1092.93
 10
2568.498
 20
1092.93
 10
2568.498
 20
1071.5
  0
LWPOLYLINE
  5
96
330
1F
100
AcDbEntity
  8
text2
100
AcDbPolyline
 90
        6
 70
     1
 43
0.0
 10
2568.498
 20
1100.07
 10
2586.358
 20
1100.07
 10
2589.928
 20
1103.645
 10
2589.928
 20
1110.785
 10
2586.358
 20
1114.355
 10
2568.498
 20
1114.355
  0
LWPOLYLINE
  5
97
330
1F
100
AcDbEntity
  8
text2
100
AcDbPolyline
 90
       10
 70
     1
 43
0.0
 10
2618.498
 20
1071.5
 10
2618.498
 20
1078.645
 10
2625.643
 20
1078.645
 10
2625.643
 20
1114.355
 10
2618.498
 20
1114.355
 10
2625.643
 20
1121.5
 10
2632.783
 20
1121.5
 10
2632.783
 20
1078.645
 10
2639.928
 20
1078.645
 10
2639.928
 20
1071.5
  0
LWPOLYLINE
  5
98
330
1F
100
AcDbEntity
  8
text2
100
AcDbPolyline
 90
       10
 70
     1
 43
0.0
 10
508.5
 20
1073.643
 10
512.787
 20
1073.643
 10
512.787
 20
1069.356
 10
499.929
 20
1069.356
 10
499.929
 20
1073.643
 10
504.216
 20
1073.643
 10
504.216
 20
1095.069
 10
499.929
 20
1095.069
 10
504.216
 20
1099.356
 10
508.5
 20
1099.356
  0
LWPOLYLINE
  5
99
330
1F
100
AcDbEntity
  8
text2
100
AcDbPolyline
 90
       73
 70
     1
 43
0.0
 10
2921.8
 20
1080.5
 10
2922.2
 20
1077.3
 10
2922.2
 20
1071.7
 10
2920.2
 20
1065.3
 10
2917.0
 20
1059.3
 10
2912.6
 20
1053.7
 10
2907.0
 20
1048.5
 10
2900.2
 20
1043.3
 10
2892.2
 20
1039.3
 10
2883.4
 20
1035.3
 10
2873.8
 20
1032.1
 10
2863.4
 20
1029.7
 10
2852.6
 20
1028.1
 10
2841.0
 20
1026.9
 10
2831.0
 20
1026.9
 10
2824.6
 20
1027.3
 10
2818.2
 20
1027.7
 10
2811.8
 20
1028.1
 10
2805.8
 20
1029.3
 10
2799.8
 20
1030.5
 10
2793.8
 20
1031.7
 10
2788.2
 20
1033.3
 10
2783.0
 20
1034.9
 10
2777.8
 20
1036.9
 10
2773.0
 20
1038.9
 10
2768.2
 20
1041.3
 10
2764.2
 20
1043.3
 10
2768.2
 20
1041.7
 10
2771.8
 20
1040.1
 10
2775.8
 20
1038.5
 10
2780.2
 20
1036.9
 10
2784.2
 20
1035.7
 10
2788.6
 20
1034.9
 10
2793.4
 20
1033.7
 10
2797.8
 20
1032.9
 10
2802.6
 20
1032.5
 10
2807.8
 20
1032.1
 10
2813.0
 20
1031.7
 10
2828.2
 20
1031.7
 10
2839.8
 20
1032.9
 10
2850.6
 20
1034.5
 10
2861.0
 20
1036.9
 10
2870.6
 20
1040.1
 10
2879.4
 20
1044.1
 10
2887.4
 20
1048.1
 10
2894.2
 20
1052.9
 10
2899.8
 20
1058.5
 10
2904.2
 20
1064.1
 10
2907.4
 20
1070.1
 10
2909.4
 20
1076.5
 10
2909.8
 20
1081.7
 10
2909.4
 20
1084.9
 10
2909.0
 20
1087.7
 10
2908.6
 20
1090.5
 10
2907.8
 20
1093.3
 10
2906.6
 20
1096.1
 10
2905.0
 20
1098.9
 10
2903.4
 20
1101.3
 10
2901.4
 20
1103.7
 10
2899.4
 20
1106.1
 10
2896.6
 20
1108.5
 10
2893.8
 20
1110.5
 10
2890.6
 20
1112.9
 10
2894.6
 20
1110.5
 10
2899.0
 20
1108.1
 10
2902.6
 20
1105.7
 10
2906.2
 20
1102.9
 10
2909.8
 20
1100.1
 10
2912.6
 20
1096.9
 10
2915.4
 20
1093.7
 10
2917.8
 20
1090.9
 10
2919.4
 20
1087.3
 10
2921.0
 20
1084.1
  0
LWPOLYLINE
  5
9A
330
1F
100
AcDbEntity
  8
text2
100
AcDbPolyline
 90
      280
 70
     1
 43
0.0
 10
2854.6
 20
1052.9
 10
2856.2
 20
1054.1
 10
2857.8
 20
1055.7
 10
2859.4
 20
1056.9
 10
2860.6
 20
1058.1
 10
2861.4
 20
1059.7
 10
2862.2
 20
1060.9
 10
2863.8
 20
1064.1
 10
2864.2
 20
1065.3
 10
2864.2
 20
1066.9
 10
2864.6
 20
1068.9
 10
2864.6
 20
1070.5
 10
2864.2
 20
1073.3
 10
2863.0
 20
1076.9
 10
2861.0
 20
1080.1
 10
2858.2
 20
1083.3
 10
2855.0
 20
1086.1
 10
2851.0
 20
1088.5
 10
2850.2
 20
1089.3
 10
2848.2
 20
1086.9
 10
2845.8
 20
1083.3
 10
2843.4
 20
1079.3
 10
2841.4
 20
1075.3
 10
2839.8
 20
1071.3
 10
2838.6
 20
1067.3
 10
2837.8
 20
1063.3
 10
2837.4
 20
1059.3
 10
2837.8
 20
1055.7
 10
2838.2
 20
1052.5
 10
2839.4
 20
1049.3
 10
2839.8
 20
1048.9
 10
2840.6
 20
1048.9
 10
2846.2
 20
1049.7
 10
2849.0
 20
1050.5
 10
2851.4
 20
1051.3
 10
2848.6
 20
1050.1
 10
2845.4
 20
1049.3
 10
2842.2
 20
1048.1
 10
2840.2
 20
1047.7
 10
2840.6
 20
1046.9
 10
2843.0
 20
1044.5
 10
2844.6
 20
1043.3
 10
2846.2
 20
1042.5
 10
2850.2
 20
1040.9
 10
2854.2
 20
1040.1
 10
2851.8
 20
1040.1
 10
2849.0
 20
1040.5
 10
2844.2
 20
1042.1
 10
2841.8
 20
1043.3
 10
2839.4
 20
1044.1
 10
2837.4
 20
1045.7
 10
2835.8
 20
1046.9
 10
2835.0
 20
1046.5
 10
2823.0
 20
1045.3
 10
2815.0
 20
1045.3
 10
2811.0
 20
1045.7
 10
2806.6
 20
1046.1
 10
2800.2
 20
1047.3
 10
2793.0
 20
1049.3
 10
2786.2
 20
1051.7
 10
2779.8
 20
1054.1
 10
2774.2
 20
1057.3
 10
2769.0
 20
1060.9
 10
2764.2
 20
1064.5
 10
2760.6
 20
1068.5
 10
2757.4
 20
1072.9
 10
2755.4
 20
1077.3
 10
2753.8
 20
1081.7
 10
2753.4
 20
1086.1
 10
2753.8
 20
1090.1
 10
2754.6
 20
1092.5
 10
2755.4
 20
1094.5
 10
2756.6
 20
1096.9
 10
2758.2
 20
1098.9
 10
2762.2
 20
1102.9
 10
2764.6
 20
1104.5
 10
2767.0
 20
1106.5
 10
2769.8
 20
1108.1
 10
2775.4
 20
1110.5
 10
2778.6
 20
1111.7
 10
2773.8
 20
1109.3
 10
2772.2
 20
1108.1
 10
2770.2
 20
1106.9
 10
2768.6
 20
1105.7
 10
2765.0
 20
1100.9
 10
2764.2
 20
1099.3
 10
2763.4
 20
1097.3
 10
2762.6
 20
1093.3
 10
2762.2
 20
1089.7
 10
2762.6
 20
1085.3
 10
2763.8
 20
1080.5
 10
2766.2
 20
1076.5
 10
2769.4
 20
1072.1
 10
2773.0
 20
1068.1
 10
2777.8
 20
1064.5
 10
2783.0
 20
1060.9
 10
2788.6
 20
1057.7
 10
2795.0
 20
1054.9
 10
2801.8
 20
1052.5
 10
2809.0
 20
1050.9
 10
2815.4
 20
1049.7
 10
2818.6
 20
1049.3
 10
2820.4
 20
1049.1
 10
2822.2
 20
1048.9
 10
2825.4
 20
1048.5
 10
2833.8
 20
1048.5
 10
2833.0
 20
1048.9
 10
2829.0
 20
1052.9
 10
2827.4
 20
1055.3
 10
2824.6
 20
1058.9
 10
2822.2
 20
1063.7
 10
2821.8
 20
1064.9
 10
2821.4
 20
1065.3
 10
2820.6
 20
1066.5
 10
2820.4
 20
1066.7
 10
2819.4
 20
1067.7
 10
2818.6
 20
1068.9
 10
2816.2
 20
1070.5
 10
2815.0
 20
1071.7
 10
2813.8
 20
1072.1
 10
2811.4
 20
1073.7
 10
2810.2
 20
1074.1
 10
2808.6
 20
1074.5
 10
2807.0
 20
1074.5
 10
2805.4
 20
1074.9
 10
2804.2
 20
1074.9
 10
2802.6
 20
1075.3
 10
2801.0
 20
1074.9
 10
2799.4
 20
1074.9
 10
2797.8
 20
1074.5
 10
2796.6
 20
1074.1
 10
2793.4
 20
1073.3
 10
2792.2
 20
1072.5
 10
2790.6
 20
1071.7
 10
2789.0
 20
1070.5
 10
2787.8
 20
1069.7
 10
2790.6
 20
1072.5
 10
2792.6
 20
1073.7
 10
2794.2
 20
1074.5
 10
2796.2
 20
1075.7
 10
2797.8
 20
1076.5
 10
2799.8
 20
1077.3
 10
2801.4
 20
1077.7
 10
2803.4
 20
1078.5
 10
2805.0
 20
1078.5
 10
2807.0
 20
1078.9
 10
2809.0
 20
1078.9
 10
2810.6
 20
1078.5
 10
2812.6
 20
1078.5
 10
2814.2
 20
1077.7
 10
2816.2
 20
1077.3
 10
2818.6
 20
1076.1
 10
2818.2
 20
1079.3
 10
2818.2
 20
1084.9
 10
2818.6
 20
1090.1
 10
2819.8
 20
1095.3
 10
2820.2
 20
1096.1
 10
2818.2
 20
1096.1
 10
2812.6
 20
1095.7
 10
2809.8
 20
1095.3
 10
2807.0
 20
1095.3
 10
2801.4
 20
1094.5
 10
2799.0
 20
1094.1
 10
2796.2
 20
1093.3
 10
2793.8
 20
1092.9
 10
2791.8
 20
1092.1
 10
2789.4
 20
1091.3
 10
2787.0
 20
1090.1
 10
2785.0
 20
1089.3
 10
2787.4
 20
1090.9
 10
2790.2
 20
1092.1
 10
2793.0
 20
1093.7
 10
2795.8
 20
1094.9
 10
2799.0
 20
1095.7
 10
2802.2
 20
1096.9
 10
2805.4
 20
1097.7
 10
2809.0
 20
1098.5
 10
2812.2
 20
1099.3
 10
2819.4
 20
1100.1
 10
2819.4
 20
1101.3
 10
2818.6
 20
1102.9
 10
2817.8
 20
1104.1
 10
2817.0
 20
1105.7
 10
2815.4
 20
1108.1
 10
2811.8
 20
1111.7
 10
2809.4
 20
1113.3
 10
2807.8
 20
1114.1
 10
2806.6
 20
1114.5
 10
2805.0
 20
1115.3
 10
2803.8
 20
1115.7
 10
2802.2
 20
1116.1
 10
2800.6
 20
1116.1
 10
2799.0
 20
1116.5
 10
2797.4
 20
1116.5
 10
2795.8
 20
1116.1
 10
2793.8
 20
1116.1
 10
2792.2
 20
1115.7
 10
2791.8
 20
1115.7
 10
2794.2
 20
1116.5
 10
2798.2
 20
1117.3
 10
2806.2
 20
1117.3
 10
2810.2
 20
1116.5
 10
2811.8
 20
1116.1
 10
2813.4
 20
1115.3
 10
2815.4
 20
1114.5
 10
2817.0
 20
1113.3
 10
2818.2
 20
1112.5
 10
2820.4
 20
1110.3
 10
2822.6
 20
1108.1
 10
2823.4
 20
1106.5
 10
2824.2
 20
1105.7
 10
2826.6
 20
1109.3
 10
2829.8
 20
1113.7
 10
2833.4
 20
1116.9
 10
2835.4
 20
1118.5
 10
2837.8
 20
1120.1
 10
2842.6
 20
1122.5
 10
2849.8
 20
1124.9
 10
2852.2
 20
1125.3
 10
2859.8
 20
1125.3
 10
2862.6
 20
1124.9
 10
2860.2
 20
1124.9
 10
2857.8
 20
1124.5
 10
2855.8
 20
1124.5
 10
2853.8
 20
1123.7
 10
2851.8
 20
1123.3
 10
2847.8
 20
1121.7
 10
2846.2
 20
1120.9
 10
2844.6
 20
1119.7
 10
2843.4
 20
1118.9
 10
2841.8
 20
1117.7
 10
2838.2
 20
1114.1
 10
2835.8
 20
1110.9
 10
2831.8
 20
1102.1
 10
2831.4
 20
1100.1
 10
2837.0
 20
1099.7
 10
2843.0
 20
1098.5
 10
2848.2
 20
1096.9
 10
2849.8
 20
1096.5
 10
2852.2
 20
1098.1
 10
2855.0
 20
1099.7
 10
2857.0
 20
1100.9
 10
2859.4
 20
1101.7
 10
2861.8
 20
1102.9
 10
2864.2
 20
1103.7
 10
2866.6
 20
1104.1
 10
2869.4
 20
1104.9
 10
2874.2
 20
1105.7
 10
2885.4
 20
1105.7
 10
2887.4
 20
1105.3
 10
2882.2
 20
1105.3
 10
2880.2
 20
1104.9
 10
2878.2
 20
1104.9
 10
2876.6
 20
1104.5
 10
2874.6
 20
1103.7
 10
2872.6
 20
1103.3
 10
2870.6
 20
1102.5
 10
2868.6
 20
1102.1
 10
2867.0
 20
1101.3
 10
2865.0
 20
1100.1
 10
2863.0
 20
1099.3
 10
2861.0
 20
1098.1
 10
2858.6
 20
1096.5
 10
2855.4
 20
1094.1
 10
2857.8
 20
1092.9
 10
2861.4
 20
1090.5
 10
2865.0
 20
1087.7
 10
2867.4
 20
1084.5
 10
2869.4
 20
1081.3
 10
2870.6
 20
1077.7
 10
2871.0
 20
1074.5
 10
2871.0
 20
1072.5
 10
2870.6
 20
1070.5
 10
2869.0
 20
1066.5
 10
2867.8
 20
1064.9
 10
2864.6
 20
1060.9
 10
2863.0
 20
1059.3
 10
2861.0
 20
1057.7
 10
2859.0
 20
1055.7
 10
2857.0
 20
1054.5
  0
ENDSEC
  0
SECTION
  2
OBJECTS
  0
DICTIONARY
  5
C
330
0
100
AcDbDictionary
281
     1
  3
ACAD_GROUP
350
D
  3
ACAD_LAYOUT
350
1A
  3
ACAD_MLEADERSTYLE
350
9C
  3
ACAD_MLINESTYLE
350
17
  3
ACAD_PLOTSETTINGS
350
19
  3
ACAD_PLOTSTYLENAME
350
E
  3
ACAD_SCALELIST
350
3B
  3
ACAD_TABLESTYLE
350
9B
  3
ACAD_VISUALSTYLE
350
2A
  0
DICTIONARY
  5
D
102
{ACAD_REACTORS
330
C
102
}
330
C
100
AcDbDictionary
281
     1
  0
DICTIONARY
  5
1A
102
{ACAD_REACTORS
330
C
102
}
330
C
100
AcDbDictionary
281
     1
  3
Layout1
350
1E
  3
Layout2
350
26
  3
Model
350
22
  0
DICTIONARY
  5
9C
102
{ACAD_REACTORS
330
C
102
}
330
C
100
AcDbDictionary
281
     1
  0
DICTIONARY
  5
17
102
{ACAD_REACTORS
330
C
102
}
330
C
100
AcDbDictionary
281
     1
  3
Standard
350
18
  0
DICTIONARY
  5
19
102
{ACAD_REACTORS
330
C
102
}
330
C
100
AcDbDictionary
281
     1
  0
ACDBDICTIONARYWDFLT
  5
E
102
{ACAD_REACTORS
330
C
102
}
330
C
100
AcDbDictionary
281
     1
  3
Normal
350
F
100
AcDbDictionaryWithDefault
340
F
  0
DICTIONARY
  5
3B
102
{ACAD_REACTORS
330
C
102
}
330
C
100
AcDbDictionary
281
     1
  3
A0
350
3C
  3
A1
350
3D
  3
A2
350
3E
  3
A3
350
3F
  3
A4
350
40
  3
A5
350
41
  3
A6
350
42
  3
A7
350
43
  3
A8
350
44
  3
A9
350
45
  3
B0
350
46
  3
B1
350
47
  3
B2
350
48
  3
B3
350
49
  3
B4
350
4A
  3
B5
350
4B
  3
B6
350
4C
  3
B7
350
4D
  3
B8
350
4E
  3
B9
350
4F
  3
C0
350
50
  3
C1
350
51
  3
C2
350
52
  3
C3
350
53
  3
C4
350
54
  3
C5
350
55
  3
C6
350
56
  3
C7
350
57
  3
C8
350
58
  3
C9
350
59
  3
D0
350
5A
  3
D1
350
5B
  3
D2
350
5C
  0
DICTIONARY
  5
9B
102
{ACAD_REACTORS
330
C
102
}
330
C
100
AcDbDictionary
281
     1
  0
DICTIONARY
  5
2A
102
{ACAD_REACTORS
330
C
102
}
330
C
100
AcDbDictionary
281
     1
  3
2dWireframe
350
2F
  3
3D Hidden
350
31
  3
3dWireframe
350
30
  3
Basic
350
32
  3
Brighten
350
36
  3
ColorChange
350
3A
  3
Conceptual
350
34
  3
Dim
350
35
  3
Facepattern
350
39
  3
Flat
350
2B
  3
FlatWithEdges
350
2C
  3
Gouraud
350
2D
  3
GouraudWithEdges
350
2E
  3
Linepattern
350
38
  3
Realistic
350
33
  3
Thicken
350
37
  0
LAYOUT
  5
1E
102
{ACAD_REACTORS
330
1A
102
}
330
1A
100
AcDbPlotSettings
  1

  2
none_device
  4

  6

 40
0.0
 41
0.0
 42
0.0
 43
0.0
 44
0.0
 45
0.0
 46
0.0
 47
0.0
 48
0.0
 49
0.0
140
0.0
141
0.0
142
1.0
143
1.0
 70
   688
 72
     0
 73
     0
 74
     5
  7

 75
    16
 76
     0
 77
     2
 78
   300
147
1.0
148
0.0
149
0.0
100
AcDbLayout
  1
Layout1
 70
     1
 71
     1
 10
0.0
 20
0.0
 11
12.0
 21
9.0
 12
0.0
 22
0.0
 32
0.0
 14
1.000000000000000E+20
 24
1.000000000000000E+20
 34
1.000000000000000E+20
 15
-1.000000000000000E+20
 25
-1.000000000000000E+20
 35
-1.000000000000000E+20
146
0.0
 13
0.0
 23
0.0
 33
0.0
 16
1.0
 26
0.0
 36
0.0
 17
0.0
 27
1.0
 37
0.0
 76
     0
330
1B
  0
LAYOUT
  5
26
102
{ACAD_REACTORS
330
1A
102
}
330
1A
100
AcDbPlotSettings
  1

  2
none_device
  4

  6

 40
0.0
 41
0.0
 42
0.0
 43
0.0
 44
0.0
 45
0.0
 46
0.0
 47
0.0
 48
0.0
 49
0.0
140
0.0
141
0.0
142
1.0
143
1.0
 70
   688
 72
     0
 73
     0
 74
     5
  7

 75
    16
 76
     0
 77
     2
 78
   300
147
1.0
148
0.0
149
0.0
100
AcDbLayout
  1
Layout2
 70
     1
 71
     2
 10
0.0
 20
0.0
 11
0.0
 21
0.0
 12
0.0
 22
0.0
 32
0.0
 14
0.0
 24
0.0
 34
0.0
 15
0.0
 25
0.0
 35
0.0
146
0.0
 13
0.0
 23
0.0
 33
0.0
 16
1.0
 26
0.0
 36
0.0
 17
0.0
 27
1.0
 37
0.0
 76
     0
330
23
  0
LAYOUT
  5
22
102
{ACAD_REACTORS
330
1A
102
}
330
1A
100
AcDbPlotSettings
  1

  2
none_device
  4

  6

 40
0.0
 41
0.0
 42
0.0
 43
0.0
 44
0.0
 45
0.0
 46
0.0
 47
0.0
 48
0.0
 49
0.0
140
0.0
141
0.0
142
1.0
143
1.0
 70
  1712
 72
     0
 73
     0
 74
     0
  7

 75
     0
 76
     0
 77
     2
 78
   300
147
1.0
148
0.0
149
0.0
100
AcDbLayout
  1
Model
 70
     1
 71
     0
 10
0.0
 20
0.0
 11
12.0
 21
9.0
 12
0.0
 22
0.0
 32
0.0
 14
1.000000000000000E+20
 24
1.000000000000000E+20
 34
1.000000000000000E+20
 15
-1.000000000000000E+20
 25
-1.000000000000000E+20
 35
-1.000000000000000E+20
146
0.0
 13
0.0
 23
0.0
 33
0.0
 16
1.0
 26
0.0
 36
0.0
 17
0.0
 27
1.0
 37
0.0
 76
     0
330
1F
331
29
  0
MLINESTYLE
  5
18
102
{ACAD_REACTORS
330
17
102
}
330
17
100
AcDbMlineStyle
  2
Standard
 70
     0
  3

 62
   256
 51
90.0
 52
90.0
 71
     2
 49
0.5
 62
   256
  6
BYLAYER
 49
-0.5
 62
   256
  6
BYLAYER
  0
ACDBPLACEHOLDER
  5
F
102
{ACAD_REACTORS
330
E
102
}
330
E
  0
SCALE
  5
3C
102
{ACAD_REACTORS
330
3B
102
}
330
3B
100
AcDbScale
 70
     0
300
1:1
140
1.0
141
1.0
290
     1
  0
SCALE
  5
3D
102
{ACAD_REACTORS
330
3B
102
}
330
3B
100
AcDbScale
 70
     0
300
1:2
140
1.0
141
2.0
290
     0
  0
SCALE
  5
3E
102
{ACAD_REACTORS
330
3B
102
}
330
3B
100
AcDbScale
 70
     0
300
1:4
140
1.0
141
4.0
290
     0
  0
SCALE
  5
3F
102
{ACAD_REACTORS
330
3B
102
}
330
3B
100
AcDbScale
 70
     0
300
1:5
140
1.0
141
5.0
290
     0
  0
SCALE
  5
40
102
{ACAD_REACTORS
330
3B
102
}
330
3B
100
AcDbScale
 70
     0
300
1:8
140
1.0
141
8.0
290
     0
  0
SCALE
  5
41
102
{ACAD_REACTORS
330
3B
102
}
330
3B
100
AcDbScale
 70
     0
300
1:10
140
1.0
141
10.0
290
     0
  0
SCALE
  5
42
102
{ACAD_REACTORS
330
3B
102
}
330
3B
100
AcDbScale
 70
     0
300
1:16
140
1.0
141
16.0
290
     0
  0
SCALE
  5
43
102
{ACAD_REACTORS
330
3B
102
}
330
3B
100
AcDbScale
 70
     0
300
1:20
140
1.0
141
20.0
290
     0
  0
SCALE
  5
44
102
{ACAD_REACTORS
330
3B
102
}
330
3B
100
AcDbScale
 70
     0
300
1:30
140
1.0
141
30.0
290
     0
  0
SCALE
  5
45
102
{ACAD_REACTORS
330
3B
102
}
330
3B
100
AcDbScale
 70
     0
300
1:40
140
1.0
141
40.0
290
     0
  0
SCALE
  5
46
102
{ACAD_REACTORS
330
3B
102
}
330
3B
100
AcDbScale
 70
     0
300
1:50
140
1.0
141
50.0
290
     0
  0
SCALE
  5
47
102
{ACAD_REACTORS
330
3B
102
}
330
3B
100
AcDbScale
 70
     0
300
1:100
140
1.0
141
100.0
290
     0
  0
SCALE
  5
48
102
{ACAD_REACTORS
330
3B
102
}
330
3B
100
AcDbScale
 70
     0
300
2:1
140
2.0
141
1.0
290
     0
  0
SCALE
  5
49
102
{ACAD_REACTORS
330
3B
102
}
330
3B
100
AcDbScale
 70
     0
300
4:1
140
4.0
141
1.0
290
     0
  0
SCALE
  5
4A
102
{ACAD_REACTORS
330
3B
102
}
330
3B
100
AcDbScale
 70
     0
300
8:1
140
8.0
141
1.0
290
     0
  0
SCALE
  5
4B
102
{ACAD_REACTORS
330
3B
102
}
330
3B
100
AcDbScale
 70
     0
300
10:1
140
10.0
141
1.0
290
     0
  0
SCALE
  5
4C
102
{ACAD_REACTORS
330
3B
102
}
330
3B
100
AcDbScale
 70
     0
300
100:1
140
100.0
141
1.0
290
     0
  0
SCALE
  5
4D
102
{ACAD_REACTORS
330
3B
102
}
330
3B
100
AcDbScale
 70
     0
300
1/128" = 1'-0"
140
0.0078125
141
12.0
290
     0
  0
SCALE
  5
4E
102
{ACAD_REACTORS
330
3B
102
}
330
3B
100
AcDbScale
 70
     0
300
1/64" = 1'-0"
140
0.015625
141
12.0
290
     0
  0
SCALE
  5
4F
102
{ACAD_REACTORS
330
3B
102
}
330
3B
100
AcDbScale
 70
     0
300
1/32" = 1'-0"
140
0.03125
141
12.0
290
     0
  0
SCALE
  5
50
102
{ACAD_REACTORS
330
3B
102
}
330
3B
100
AcDbScale
 70
     0
300
1/16" = 1'-0"
140
0.0625
141
12.0
290
     0
  0
SCALE
  5
51
102
{ACAD_REACTORS
330
3B
102
}
330
3B
100
AcDbScale
 70
     0
300
3/32" = 1'-0"
140
0.09375
141
12.0
290
     0
  0
SCALE
  5
52
102
{ACAD_REACTORS
330
3B
102
}
330
3B
100
AcDbScale
 70
     0
300
1/8" = 1'-0"
140
0.125
141
12.0
290
     0
  0
SCALE
  5
53
102
{ACAD_REACTORS
330
3B
102
}
330
3B
100
AcDbScale
 70
     0
300
3/16" = 1'-0"
140
0.1875
141
12.0
290
     0
  0
SCALE
  5
54
102
{ACAD_REACTORS
330
3B
102
}
330
3B
100
AcDbScale
 70
     0
300
1/4" = 1'-0"
140
0.25
141
12.0
290
     0
  0
SCALE
  5
55
102
{ACAD_REACTORS
330
3B
102
}
330
3B
100
AcDbScale
 70
     0
300
3/8" = 1'-0"
140
0.375
141
12.0
290
     0
  0
SCALE
  5
56
102
{ACAD_REACTORS
330
3B
102
}
330
3B
100
AcDbScale
 70
     0
300
1/2" = 1'-0"
140
0.5
141
12.0
290
     0
  0
SCALE
  5
57
102
{ACAD_REACTORS
330
3B
102
}
330
3B
100
AcDbScale
 70
     0
300
3/4" = 1'-0"
140
0.75
141
12.0
290
     0
  0
SCALE
  5
58
102
{ACAD_REACTORS
330
3B
102
}
330
3B
100
AcDbScale
 70
     0
300
1" = 1'-0"
140
1.0
141
12.0
290
     0
  0
SCALE
  5
59
102
{ACAD_REACTORS
330
3B
102
}
330
3B
100
AcDbScale
 70
     0
300
1-1/2" = 1'-0"
140
1.5
141
12.0
290
     0
  0
SCALE
  5
5A
102
{ACAD_REACTORS
330
3B
102
}
330
3B
100
AcDbScale
 70
     0
300
3" = 1'-0"
140
3.0
141
12.0
290
     0
  0
SCALE
  5
5B
102
{ACAD_REACTORS
330
3B
102
}
330
3B
100
AcDbScale
 70
     0
300
6" = 1'-0"
140
6.0
141
12.0
290
     0
  0
SCALE
  5
5C
102
{ACAD_REACTORS
330
3B
102
}
330
3B
100
AcDbScale
 70
     0
300
1'-0" = 1'-0"
140
12.0
141
12.0
290
     0
  0
VISUALSTYLE
  5
2F
102
{ACAD_REACTORS
330
2A
102
}
330
2A
100
AcDbVisualStyle
  2
2dWireframe
 70
     4
 71
     0
 72
     2
 73
     0
 90
        0
 40
-0.6
 41
-30.0
 62
     5
 63
     7
421
 16777215
 74
     1
 91
        4
 64
     7
 65
   257
 75
     1
175
     1
 42
1.0
 92
        0
 66
   257
 43
1.0
 76
     1
 77
     6
 78
     2
 67
     7
 79
     5
170
     0
171
     0
290
     0
174
     0
 93
        1
 44
0.0
173
     0
291
     0
 45
0.0
1001
ACAD
1000
AcDbSavedByObjectVersion
1070
     0
  0
VISUALSTYLE
  5
31
102
{ACAD_REACTORS
330
2A
102
}
330
2A
100
AcDbVisualStyle
  2
3D Hidden
 70
     6
 71
     1
 72
     2
 73
     2
 90
        0
 40
-0.6
 41
-30.0
 62
     5
 63
     7
421
 16777215
 74
     2
 91
        2
 64
     7
 65
   257
 75
     2
175
     1
 42
40.0
 92
        0
 66
   257
 43
1.0
 76
     1
 77
     6
 78
     2
 67
     7
 79
     3
170
     0
171
     0
290
     0
174
     0
 93
        1
 44
0.0
173
     0
291
     0
 45
0.0
1001
ACAD
1000
AcDbSavedByObjectVersion
1070
     0
  0
VISUALSTYLE
  5
30
102
{ACAD_REACTORS
330
2A
102
}
330
2A
100
AcDbVisualStyle
  2
3dWireframe
 70
     5
 71
     0
 72
     2
 73
     0
 90
        0
 40
-0.6
 41
-30.0
 62
     5
 63
     7
421
 16777215
 74
     1
 91
        4
 64
     7
 65
   257
 75
     1
175
     1
 42
1.0
 92
        0
 66
   257
 43
1.0
 76
     1
 77
     6
 78
     2
 67
     7
 79
     5
170
     0
171
     0
290
     0
174
     0
 93
        1
 44
0.0
173
     0
291
     0
 45
0.0
1001
ACAD
1000
AcDbSavedByObjectVersion
1070
     0
  0
VISUALSTYLE
  5
32
102
{ACAD_REACTORS
330
2A
102
}
330
2A
100
AcDbVisualStyle
  2
Basic
 70
     7
 71
     1
 72
     0
 73
     1
 90
        0
 40
-0.6
 41
-30.0
 62
     5
 63
     7
421
 16777215
 74
     0
 91
        4
 64
     7
 65
   257
 75
     1
175
     1
 42
1.0
 92
        8
 66
     7
 43
1.0
 76
     1
 77
     6
 78
     2
 67
     7
 79
     5
170
     0
171
     0
290
     0
174
     0
 93
        1
 44
0.0
173
     0
291
     1
 45
0.0
1001
ACAD
1000
AcDbSavedByObjectVersion
1070
     0
  0
VISUALSTYLE
  5
36
102
{ACAD_REACTORS
330
2A
102
}
330
2A
100
AcDbVisualStyle
  2
Brighten
 70
    12
 71
     2
 72
     2
 73
     0
 90
        0
 40
-0.6
 41
-30.0
 62
     5
 63
     7
421
 16777215
 74
     1
 91
        4
 64
     7
 65
   257
 75
     1
175
     1
 42
1.0
 92
        8
 66
     7
 43
1.0
 76
     1
 77
     6
 78
     2
 67
     7
 79
     5
170
     0
171
     0
290
     0
174
     0
 93
        1
 44
50.0
173
     0
291
     1
 45
0.0
1001
ACAD
1000
AcDbSavedByObjectVersion
1070
     0
  0
VISUALSTYLE
  5
3A
102
{ACAD_REACTORS
330
2A
102
}
330
2A
100
AcDbVisualStyle
  2
ColorChange
 70
    16
 71
     2
 72
     2
 73
     3
 90
        0
 40
-0.6
 41
-30.0
 62
     5
 63
     8
421
  8421504
 74
     1
 91
        4
 64
     7
 65
   257
 75
     1
175
     1
 42
1.0
 92
        8
 66
     8
424
  8421504
 43
1.0
 76
     1
 77
     6
 78
     2
 67
     7
 79
     5
170
     0
171
     0
290
     0
174
     0
 93
        1
 44
0.0
173
     0
291
     1
 45
0.0
1001
ACAD
1000
AcDbSavedByObjectVersion
1070
     0
  0
VISUALSTYLE
  5
34
102
{ACAD_REACTORS
330
2A
102
}
330
2A
100
AcDbVisualStyle
  2
Conceptual
 70
     9
 71
     3
 72
     2
 73
     0
 90
        0
 40
-0.6
 41
-30.0
 62
     5
 63
     7
421
 16777215
 74
     2
 91
        2
 64
     7
 65
   257
 75
     1
175
     1
 42
40.0
 92
        8
 66
     7
 43
1.0
 76
     1
 77
     6
 78
     2
 67
     7
 79
     3
170
     0
171
     0
290
     0
174
     0
 93
        1
 44
0.0
173
     0
291
     0
 45
0.0
1001
ACAD
1000
AcDbSavedByObjectVersion
1070
     0
  0
VISUALSTYLE
  5
35
102
{ACAD_REACTORS
330
2A
102
}
330
2A
100
AcDbVisualStyle
  2
Dim
 70
    11
 71
     2
 72
     2
 73
     0
 90
        0
 40
-0.6
 41
-30.0
 62
     5
 63
     7
421
 16777215
 74
     1
 91
        4
 64
     7
 65
   257
 75
     1
175
     1
 42
1.0
 92
        8
 66
     7
 43
1.0
 76
     1
 77
     6
 78
     2
 67
     7
 79
     5
170
     0
171
     0
290
     0
174
     0
 93
        1
 44
-50.0
173
     0
291
     1
 45
0.0
1001
ACAD
1000
AcDbSavedByObjectVersion
1070
     0
  0
VISUALSTYLE
  5
39
102
{ACAD_REACTORS
330
2A
102
}
330
2A
100
AcDbVisualStyle
  2
Facepattern
 70
    15
 71
     2
 72
     2
 73
     0
 90
        0
 40
-0.6
 41
-30.0
 62
     5
 63
     7
421
 16777215
 74
     1
 91
        4
 64
     7
 65
   257
 75
     1
175
     1
 42
1.0
 92
        8
 66
     7
 43
1.0
 76
     1
 77
     6
 78
     2
 67
     7
 79
     5
170
     0
171
     0
290
     0
174
     0
 93
        1
 44
0.0
173
     0
291
     1
 45
0.0
1001
ACAD
1000
AcDbSavedByObjectVersion
1070
     0
  0
VISUALSTYLE
  5
2B
102
{ACAD_REACTORS
330
2A
102
}
330
2A
100
AcDbVisualStyle
  2
Flat
 70
     0
 71
     2
 72
     1
 73
     1
 90
        2
 40
-0.6
 41
30.0
 62
     5
 63
     7
421
 16777215
 74
     0
 91
        4
 64
     7
 65
   257
 75
     1
175
     1
 42
1.0
 92
        8
 66
     7
 43
1.0
 76
     1
 77
     6
 78
     2
 67
     7
 79
     5
170
     0
171
     0
290
     0
174
     0
 93
       13
 44
0.0
173
     0
291
     1
 45
0.0
1001
ACAD
1000
AcDbSavedByObjectVersion
1070
     0
  0
VISUALSTYLE
  5
2C
102
{ACAD_REACTORS
330
2A
102
}
330
2A
100
AcDbVisualStyle
  2
FlatWithEdges
 70
     1
 71
     2
 72
     1
 73
     1
 90
        2
 40
-0.6
 41
30.0
 62
     5
 63
     7
421
 16777215
 74
     1
 91
        4
 64
     7
 65
   257
 75
     1
175
     1
 42
1.0
 92
        0
 66
   257
 43
1.0
 76
     1
 77
     6
 78
     2
 67
     7
 79
     5
170
     0
171
     0
290
     0
174
     0
 93
       13
 44
0.0
173
     0
291
     1
 45
0.0
1001
ACAD
1000
AcDbSavedByObjectVersion
1070
     0
  0
VISUALSTYLE
  5
2D
102
{ACAD_REACTORS
330
2A
102
}
330
2A
100
AcDbVisualStyle
  2
Gouraud
 70
     2
 71
     2
 72
     2
 73
     1
 90
        2
 40
-0.6
 41
30.0
 62
     5
 63
     7
421
 16777215
 74
     0
 91
        4
 64
     7
 65
   257
 75
     1
175
     1
 42
1.0
 92
        0
 66
     7
 43
1.0
 76
     1
 77
     6
 78
     2
 67
     7
 79
     5
170
     0
171
     0
290
     0
174
     0
 93
       13
 44
0.0
173
     0
291
     1
 45
0.0
1001
ACAD
1000
AcDbSavedByObjectVersion
1070
     0
  0
VISUALSTYLE
  5
2E
102
{ACAD_REACTORS
330
2A
102
}
330
2A
100
AcDbVisualStyle
  2
GouraudWithEdges
 70
     3
 71
     2
 72
     2
 73
     1
 90
        2
 40
-0.6
 41
30.0
 62
     5
 63
     7
421
 16777215
 74
     1
 91
        4
 64
     7
 65
   257
 75
     1
175
     1
 42
1.0
 92
        0
 66
   257
 43
1.0
 76
     1
 77
     6
 78
     2
 67
     7
 79
     5
170
     0
171
     0
290
     0
174
     0
 93
       13
 44
0.0
173
     0
291
     1
 45
0.0
1001
ACAD
1000
AcDbSavedByObjectVersion
1070
     0
  0
VISUALSTYLE
  5
38
102
{ACAD_REACTORS
330
2A
102
}
330
2A
100
AcDbVisualStyle
  2
Linepattern
 70
    14
 71
     2
 72
     2
 73
     0
 90
        0
 40
-0.6
 41
-30.0
 62
     5
 63
     7
421
 16777215
 74
     1
 91
        4
 64
     7
 65
   257
 75
     7
175
     7
 42
1.0
 92
        8
 66
     7
 43
1.0
 76
     1
 77
     6
 78
     2
 67
     7
 79
     5
170
     0
171
     0
290
     0
174
     0
 93
        1
 44
0.0
173
     0
291
     1
 45
0.0
1001
ACAD
1000
AcDbSavedByObjectVersion
1070
     0
  0
VISUALSTYLE
  5
33
102
{ACAD_REACTORS
330
2A
102
}
330
2A
100
AcDbVisualStyle
  2
Realistic
 70
     8
 71
     2
 72
     2
 73
     0
 90
        0
 40
-0.6
 41
-30.0
 62
     5
 63
     7
421
 16777215
 74
     1
 91
        0
 64
     7
 65
   257
 75
     1
175
     1
 42
1.0
 92
        8
 66
     8
424
  7895160
 43
1.0
 76
     1
 77
     6
 78
     2
 67
     7
 79
     5
170
     0
171
     0
290
     0
174
     0
 93
       13
 44
0.0
173
     0
291
     0
 45
0.0
1001
ACAD
1000
AcDbSavedByObjectVersion
1070
     0
  0
VISUALSTYLE
  5
37
102
{ACAD_REACTORS
330
2A
102
}
330
2A
100
AcDbVisualStyle
  2
Thicken
 70
    13
 71
     2
 72
     2
 73
     0
 90
        0
 40
-0.6
 41
-30.0
 62
     5
 63
     7
421
 16777215
 74
     1
 91
        4
 64
     7
 65
   257
 75
     1
175
     1
 42
1.0
 92
       12
 66
     7
 43
1.0
 76
     1
 77
     6
 78
     2
 67
     7
 79
     5
170
     0
171
     0
290
     0
174
     0
 93
        1
 44
0.0
173
     0
291
     1
 45
0.0
1001
ACAD
1000
AcDbSavedByObjectVersion
1070
     0
  0
ENDSEC
  0
EOF
